  0
SECTION
  2
HEADER
  9
$ACADVER
  1
AC1015
  9
$ACADMAINTVER
 70
     6
  9
$DWGCODEPAGE
  3
ANSI_1252
  9
$INSBASE
 10
0.0
 20
0.0
 30
0.0
  9
$EXTMIN
 10
0.0
 20
0.0
 30
0.0
  9
$EXTMAX
 10
431.8
 20
279.4
 30
0.0
  9
$LIMMIN
 10
0.0
 20
0.0
  9
$LIMMAX
 10
431.8
 20
279.4
  9
$ORTHOMODE
 70
     0
  9
$REGENMODE
 70
     1
  9
$FILLMODE
 70
     1
  9
$QTEXTMODE
 70
     0
  9
$MIRRTEXT
 70
     1
  9
$LTSCALE
 40
1.0
  9
$ATTMODE
 70
     1
  9
$TEXTSIZE
 40
4.9388888889
  9
$TRACEWID
 40
1.0
  9
$TEXTSTYLE
  7
Standard
  9
$CLAYER
  8
0
  9
$CELTYPE
  6
ByLayer
  9
$CECOLOR
 62
   256
  9
$CELTSCALE
 40
1.0
  9
$DISPSILH
 70
     0
  9
$DIMSCALE
 40
1.0
  9
$DIMASZ
 40
5.1366373698
  9
$DIMEXO
 40
2.0
  9
$DIMDLI
 40
3.75
  9
$DIMRND
 40
0.0
  9
$DIMDLE
 40
0.0
  9
$DIMEXE
 40
2.0
  9
$DIMTP
 40
0.0
  9
$DIMTM
 40
0.0
  9
$DIMTXT
 40
7.0555555556
  9
$DIMCEN
 40
2.5
  9
$DIMTSZ
 40
0.0
  9
$DIMTOL
 70
     0
  9
$DIMLIM
 70
     0
  9
$DIMTIH
 70
     1
  9
$DIMTOH
 70
     1
  9
$DIMSE1
 70
     0
  9
$DIMSE2
 70
     0
  9
$DIMTAD
 70
     1
  9
$DIMZIN
 70
     0
  9
$DIMBLK
  1

  9
$DIMASO
 70
     1
  9
$DIMSHO
 70
     1
  9
$DIMPOST
  1

  9
$DIMAPOST
  1

  9
$DIMALT
 70
     0
  9
$DIMALTD
 70
     3
  9
$DIMALTF
 40
0.0393700787
  9
$DIMLFAC
 40
1.0
  9
$DIMTOFL
 70
     1
  9
$DIMTVP
 40
0.0
  9
$DIMTIX
 70
     0
  9
$DIMSOXD
 70
     0
  9
$DIMSAH
 70
     0
  9
$DIMBLK1
  1

  9
$DIMBLK2
  1

  9
$DIMSTYLE
  2
ISO-25
  9
$DIMCLRD
 70
     0
  9
$DIMCLRE
 70
     0
  9
$DIMCLRT
 70
     0
  9
$DIMTFAC
 40
1.0
  9
$DIMGAP
 40
2.0
  9
$DIMJUST
 70
     0
  9
$DIMSD1
 70
     0
  9
$DIMSD2
 70
     0
  9
$DIMTOLJ
 70
     0
  9
$DIMTZIN
 70
     0
  9
$DIMALTZ
 70
     0
  9
$DIMALTTZ
 70
     0
  9
$DIMUPT
 70
     0
  9
$DIMDEC
 70
     2
  9
$DIMTDEC
 70
     2
  9
$DIMALTU
 70
     2
  9
$DIMALTTD
 70
     3
  9
$DIMTXSTY
  7
Standard
  9
$DIMAUNIT
 70
     0
  9
$DIMADEC
 70
     2
  9
$DIMALTRND
 40
0.0
  9
$DIMAZIN
 70
     0
  9
$DIMDSEP
 70
    44
  9
$DIMATFIT
 70
     3
  9
$DIMFRAC
 70
     0
  9
$DIMLDRBLK
  1

  9
$DIMLUNIT
 70
     2
  9
$DIMLWD
 70
    -2
  9
$DIMLWE
 70
    -2
  9
$DIMTMOVE
 70
     0
  9
$LUNITS
 70
     2
  9
$LUPREC
 70
     2
  9
$SKETCHINC
 40
1.0
  9
$FILLETRAD
 40
10.0
  9
$AUNITS
 70
     0
  9
$AUPREC
 70
     2
  9
$MENU
  1
.
  9
$ELEVATION
 40
0.0
  9
$PELEVATION
 40
0.0
  9
$THICKNESS
 40
0.0
  9
$LIMCHECK
 70
     0
  9
$CHAMFERA
 40
0.0
  9
$CHAMFERB
 40
0.0
  9
$CHAMFERC
 40
0.0
  9
$CHAMFERD
 40
0.0
  9
$SKPOLY
 70
     0
  9
$TDCREATE
 40
2457683.611103218
  9
$TDUCREATE
 40
2457683.527769884
  9
$TDUPDATE
 40
2457683.611103773
  9
$TDUUPDATE
 40
2457683.52777044
  9
$TDINDWG
 40
0.0000000116
  9
$TDUSRTIMER
 40
0.0000000116
  9
$USRTIMER
 70
     1
  9
$ANGBASE
 50
0.0
  9
$ANGDIR
 70
     0
  9
$PDMODE
 70
     0
  9
$PDSIZE
 40
-1.0
  9
$PLINEWID
 40
0.0
  9
$SPLFRAME
 70
     0
  9
$SPLINETYPE
 70
     6
  9
$SPLINESEGS
 70
     8
  9
$HANDSEED
  5
4D8
  9
$SURFTAB1
 70
     6
  9
$SURFTAB2
 70
     6
  9
$SURFTYPE
 70
     6
  9
$SURFU
 70
     6
  9
$SURFV
 70
     6
  9
$UCSBASE
  2

  9
$UCSNAME
  2

  9
$UCSORG
 10
0.0
 20
0.0
 30
0.0
  9
$UCSXDIR
 10
1.0
 20
0.0
 30
0.0
  9
$UCSYDIR
 10
0.0
 20
1.0
 30
0.0
  9
$UCSORTHOREF
  2

  9
$UCSORTHOVIEW
 70
     0
  9
$UCSORGTOP
 10
0.0
 20
0.0
 30
0.0
  9
$UCSORGBOTTOM
 10
0.0
 20
0.0
 30
0.0
  9
$UCSORGLEFT
 10
0.0
 20
0.0
 30
0.0
  9
$UCSORGRIGHT
 10
0.0
 20
0.0
 30
0.0
  9
$UCSORGFRONT
 10
0.0
 20
0.0
 30
0.0
  9
$UCSORGBACK
 10
0.0
 20
0.0
 30
0.0
  9
$PUCSBASE
  2

  9
$PUCSNAME
  2

  9
$PUCSORG
 10
0.0
 20
0.0
 30
0.0
  9
$PUCSXDIR
 10
1.0
 20
0.0
 30
0.0
  9
$PUCSYDIR
 10
0.0
 20
1.0
 30
0.0
  9
$PUCSORTHOREF
  2

  9
$PUCSORTHOVIEW
 70
     0
  9
$PUCSORGTOP
 10
0.0
 20
0.0
 30
0.0
  9
$PUCSORGBOTTOM
 10
0.0
 20
0.0
 30
0.0
  9
$PUCSORGLEFT
 10
0.0
 20
0.0
 30
0.0
  9
$PUCSORGRIGHT
 10
0.0
 20
0.0
 30
0.0
  9
$PUCSORGFRONT
 10
0.0
 20
0.0
 30
0.0
  9
$PUCSORGBACK
 10
0.0
 20
0.0
 30
0.0
  9
$USERI1
 70
     0
  9
$USERI2
 70
     0
  9
$USERI3
 70
     0
  9
$USERI4
 70
     0
  9
$USERI5
 70
     0
  9
$USERR1
 40
0.0
  9
$USERR2
 40
0.0
  9
$USERR3
 40
0.0
  9
$USERR4
 40
0.0
  9
$USERR5
 40
0.0
  9
$WORLDVIEW
 70
     1
  9
$SHADEDGE
 70
     3
  9
$SHADEDIF
 70
    70
  9
$TILEMODE
 70
     1
  9
$MAXACTVP
 70
    64
  9
$PINSBASE
 10
0.0
 20
0.0
 30
0.0
  9
$PLIMCHECK
 70
     0
  9
$PEXTMIN
 10
1.0000000000E+20
 20
1.0000000000E+20
 30
1.0000000000E+20
  9
$PEXTMAX
 10
-1.0000000000E+20
 20
-1.0000000000E+20
 30
-1.0000000000E+20
  9
$PLIMMIN
 10
0.0
 20
0.0
  9
$PLIMMAX
 10
420.0
 20
297.0
  9
$UNITMODE
 70
     0
  9
$VISRETAIN
 70
     1
  9
$PLINEGEN
 70
     0
  9
$PSLTSCALE
 70
     1
  9
$TREEDEPTH
 70
  3020
  9
$CMLSTYLE
  2
Standard
  9
$CMLJUST
 70
     0
  9
$CMLSCALE
 40
20.0
  9
$PROXYGRAPHICS
 70
     1
  9
$MEASUREMENT
 70
     1
  9
$CELWEIGHT
370
    -1
  9
$ENDCAPS
280
     0
  9
$JOINSTYLE
280
     0
  9
$LWDISPLAY
290
     1
  9
$INSUNITS
 70
     4
  9
$HYPERLINKBASE
  1

  9
$STYLESHEET
  1

  9
$XEDIT
290
     1
  9
$CEPSNTYPE
380
     0
  9
$PSTYLEMODE
290
     1
  9
$FINGERPRINTGUID
  2
{C7BE8071-1F4F-4903-953A-5FC6BFAB88D7}
  9
$VERSIONGUID
  2
{FAEB1C32-E019-11D5-929B-00C0DF256EC4}
  9
$EXTNAMES
290
     1
  9
$PSVPSCALE
 40
0.0
  9
$OLESTARTUP
290
     0
  0
ENDSEC
  0
SECTION
  2
CLASSES
  0
CLASS
  1
ACDBDICTIONARYWDFLT
  2
AcDbDictionaryWithDefault
  3
ObjectDBX Classes
 90
        0
280
     0
281
     0
  0
CLASS
  1
VISUALSTYLE
  2
AcDbVisualStyle
  3
ObjectDBX Classes
 90
     4095
280
     0
281
     0
  0
CLASS
  1
MATERIAL
  2
AcDbMaterial
  3
ObjectDBX Classes
 90
     1153
280
     0
281
     0
  0
CLASS
  1
SCALE
  2
AcDbScale
  3
ObjectDBX Classes
 90
     1153
280
     0
281
     0
  0
CLASS
  1
TABLESTYLE
  2
AcDbTableStyle
  3
ObjectDBX Classes
 90
     4095
280
     0
281
     0
  0
CLASS
  1
MLEADERSTYLE
  2
AcDbMLeaderStyle
  3
ACDB_MLEADERSTYLE_CLASS
 90
     4095
280
     0
281
     0
  0
CLASS
  1
SUN
  2
AcDbSun
  3
SCENEOE
 90
     1153
280
     0
281
     0
  0
CLASS
  1
ACDBPLACEHOLDER
  2
AcDbPlaceHolder
  3
ObjectDBX Classes
 90
        0
280
     0
281
     0
  0
CLASS
  1
LAYOUT
  2
AcDbLayout
  3
ObjectDBX Classes
 90
        0
280
     0
281
     0
  0
ENDSEC
  0
SECTION
  2
TABLES
  0
TABLE
  2
VPORT
  5
8
330
0
100
AcDbSymbolTable
 70
     1
  0
VPORT
  5
29
330
8
100
AcDbSymbolTableRecord
100
AcDbViewportTableRecord
  2
*Active
 70
     0
 10
0.0
 20
0.0
 11
1.0
 21
1.0
 12
215.9
 22
139.7
 13
0.0
 23
0.0
 14
10.0
 24
10.0
 15
10.0
 25
10.0
 16
0.0
 26
0.0
 36
1.0
 17
0.0
 27
0.0
 37
0.0
 40
279.4
 41
1.5454545455
 42
50.0
 43
0.0
 44
0.0
 50
0.0
 51
0.0
 71
     0
 72
  2000
 73
     1
 74
     3
 75
     0
 76
     0
 77
     0
 78
     0
281
     0
 65
     1
110
0.0
120
0.0
130
0.0
111
1.0
121
0.0
131
0.0
112
0.0
122
1.0
132
0.0
 79
     0
146
0.0
  0
ENDTAB
  0
TABLE
  2
LTYPE
  5
5
330
0
100
AcDbSymbolTable
 70
     6
  0
LTYPE
  5
14
330
5
100
AcDbSymbolTableRecord
100
AcDbLinetypeTableRecord
  2
ByBlock
 70
     0
  3

 72
    65
 73
     0
 40
0.0
  0
LTYPE
  5
15
330
5
100
AcDbSymbolTableRecord
100
AcDbLinetypeTableRecord
  2
ByLayer
 70
     0
  3

 72
    65
 73
     0
 40
0.0
  0
LTYPE
  5
16
330
5
100
AcDbSymbolTableRecord
100
AcDbLinetypeTableRecord
  2
Continuous
 70
     0
  3
Solid line
 72
    65
 73
     0
 40
0.0
  0
LTYPE
  5
6E
330
5
100
AcDbSymbolTableRecord
100
AcDbLinetypeTableRecord
  2
HIDDEN
 70
     0
  3
Hidden __ __ __ __ __ __ __ __ __ __ __ __ __ __
 72
    65
 73
     2
 40
1.905
 49
1.27
 74
     0
 49
-0.635
 74
     0
  0
LTYPE
  5
6F
330
5
100
AcDbSymbolTableRecord
100
AcDbLinetypeTableRecord
  2
PHANTOM
 70
     0
  3
Phantom ______  __  __  ______  __  __  ______
 72
    65
 73
     6
 40
12.7
 49
6.35
 74
     0
 49
-1.27
 74
     0
 49
1.27
 74
     0
 49
-1.27
 74
     0
 49
1.27
 74
     0
 49
-1.27
 74
     0
  0
LTYPE
  5
70
330
5
100
AcDbSymbolTableRecord
100
AcDbLinetypeTableRecord
  2
CENTER
 70
     0
  3
Center ____ _ ____ _ ____ _ ____ _ ____ _ ____
 72
    65
 73
     4
 40
10.16
 49
6.35
 74
     0
 49
-1.27
 74
     0
 49
1.27
 74
     0
 49
-1.27
 74
     0
  0
LTYPE
  5
71
330
5
100
AcDbSymbolTableRecord
100
AcDbLinetypeTableRecord
  2
CENTERX2
 70
     0
  3
Center (2x) ________  __  ________  __  _____
 72
    65
 73
     4
 40
20.32
 49
12.7
 74
     0
 49
-2.54
 74
     0
 49
2.54
 74
     0
 49
-2.54
 74
     0
  0
LTYPE
  5
72
330
5
100
AcDbSymbolTableRecord
100
AcDbLinetypeTableRecord
  2
DOT2
 70
     0
  3
Dot (.5x) ........................................
 72
    65
 73
     2
 40
0.635
 49
0.0
 74
     0
 49
-0.635
 74
     0
  0
ENDTAB
  0
TABLE
  2
LAYER
  5
2
330
0
100
AcDbSymbolTable
 70
     3
  0
LAYER
  5
10
330
2
100
AcDbSymbolTableRecord
100
AcDbLayerTableRecord
  2
0
 70
     0
 62
     7
  6
Continuous
370
    -3
390
F
  0
LAYER
  5
73
330
2
100
AcDbSymbolTableRecord
100
AcDbLayerTableRecord
  2
SLD-0
 70
     0
 62
   179
  6
Continuous
370
    -3
390
F
  0
LAYER
  5
74
330
2
100
AcDbSymbolTableRecord
100
AcDbLayerTableRecord
  2
EBENE_1
 70
     0
 62
   179
  6
Continuous
370
    -3
390
F
  0
ENDTAB
  0
TABLE
  2
STYLE
  5
3
330
0
100
AcDbSymbolTable
 70
     3
  0
STYLE
  5
11
330
3
100
AcDbSymbolTableRecord
100
AcDbTextStyleTableRecord
  2
Standard
 70
     0
 40
0.0
 41
1.0
 50
0.0
 71
     0
 42
4.9388888889
  3
txt
  4

  0
STYLE
  5
96
330
3
100
AcDbSymbolTableRecord
100
AcDbTextStyleTableRecord
  2
SLDTEXTSTYLE0
 70
     0
 40
0.0
 41
0.605
 50
0.0
 71
     0
 42
4.9388888889
  3
TXT
  4

  0
STYLE
  5
16E
330
3
100
AcDbSymbolTableRecord
100
AcDbTextStyleTableRecord
  2
SLDTEXTSTYLE1
 70
     0
 40
0.0
 41
0.75
 50
0.0
 71
     0
 42
4.9388888889
  3
TXT
  4

  0
ENDTAB
  0
TABLE
  2
VIEW
  5
6
330
0
100
AcDbSymbolTable
 70
     0
  0
ENDTAB
  0
TABLE
  2
UCS
  5
7
330
0
100
AcDbSymbolTable
 70
     0
  0
ENDTAB
  0
TABLE
  2
APPID
  5
9
330
0
100
AcDbSymbolTable
 70
     1
  0
APPID
  5
12
330
9
100
AcDbSymbolTableRecord
100
AcDbRegAppTableRecord
  2
ACAD
 70
     0
  0
ENDTAB
  0
TABLE
  2
DIMSTYLE
  5
A
330
0
100
AcDbSymbolTable
 70
     1
100
AcDbDimStyleTable
  0
DIMSTYLE
105
27
330
A
100
AcDbSymbolTableRecord
100
AcDbDimStyleTableRecord
  2
ISO-25
 70
     0
 41
2.5
 42
0.625
 43
3.75
 44
1.25
 73
     0
 74
     0
 77
     1
 78
     8
140
2.5
141
2.5
143
0.0393700787
147
0.625
171
     3
172
     1
178
     0
271
     2
272
     2
274
     3
278
    44
283
     0
284
     8
340
11
  0
ENDTAB
  0
TABLE
  2
BLOCK_RECORD
  5
1
330
0
100
AcDbSymbolTable
 70
    25
  0
BLOCK_RECORD
  5
1F
330
1
100
AcDbSymbolTableRecord
100
AcDbBlockTableRecord
  2
*Model_Space
340
22
  0
BLOCK_RECORD
  5
1B
330
1
100
AcDbSymbolTableRecord
100
AcDbBlockTableRecord
  2
*Paper_Space
340
1E
  0
BLOCK_RECORD
  5
23
330
1
100
AcDbSymbolTableRecord
100
AcDbBlockTableRecord
  2
*Paper_Space0
340
26
  0
BLOCK_RECORD
  5
75
330
1
100
AcDbSymbolTableRecord
100
AcDbBlockTableRecord
  2
Block1
340
0
102
{BLKREFS
331
16D
102
}
  0
BLOCK_RECORD
  5
8C
330
1
100
AcDbSymbolTableRecord
100
AcDbBlockTableRecord
  2
SW_BLOCK_DIMENSION_0
340
0
102
{BLKREFS
331
98
102
}
  0
BLOCK_RECORD
  5
8F
330
1
100
AcDbSymbolTableRecord
100
AcDbBlockTableRecord
  2
_ORIGIN
340
0
102
{BLKREFS
331
94
331
104
102
}
  0
BLOCK_RECORD
  5
99
330
1
100
AcDbSymbolTableRecord
100
AcDbBlockTableRecord
  2
SW_BLOCK_DIMENSION_1
340
0
102
{BLKREFS
331
A0
102
}
  0
BLOCK_RECORD
  5
A1
330
1
100
AcDbSymbolTableRecord
100
AcDbBlockTableRecord
  2
SW_BLOCK_DIMENSION_2
340
0
102
{BLKREFS
331
A8
102
}
  0
BLOCK_RECORD
  5
A9
330
1
100
AcDbSymbolTableRecord
100
AcDbBlockTableRecord
  2
SW_BLOCK_DIMENSION_3
340
0
102
{BLKREFS
331
B0
102
}
  0
BLOCK_RECORD
  5
B1
330
1
100
AcDbSymbolTableRecord
100
AcDbBlockTableRecord
  2
SW_BLOCK_DIMENSION_4
340
0
102
{BLKREFS
331
B8
102
}
  0
BLOCK_RECORD
  5
B9
330
1
100
AcDbSymbolTableRecord
100
AcDbBlockTableRecord
  2
SW_BLOCK_DIMENSION_5
340
0
102
{BLKREFS
331
C0
102
}
  0
BLOCK_RECORD
  5
C1
330
1
100
AcDbSymbolTableRecord
100
AcDbBlockTableRecord
  2
SW_BLOCK_DIMENSION_6
340
0
102
{BLKREFS
331
C8
102
}
  0
BLOCK_RECORD
  5
C9
330
1
100
AcDbSymbolTableRecord
100
AcDbBlockTableRecord
  2
SW_BLOCK_DIMENSION_7
340
0
102
{BLKREFS
331
D0
102
}
  0
BLOCK_RECORD
  5
D1
330
1
100
AcDbSymbolTableRecord
100
AcDbBlockTableRecord
  2
SW_BLOCK_DIMENSION_8
340
0
102
{BLKREFS
331
D8
102
}
  0
BLOCK_RECORD
  5
D9
330
1
100
AcDbSymbolTableRecord
100
AcDbBlockTableRecord
  2
SW_BLOCK_DIMENSION_9
340
0
102
{BLKREFS
331
E0
102
}
  0
BLOCK_RECORD
  5
E1
330
1
100
AcDbSymbolTableRecord
100
AcDbBlockTableRecord
  2
SW_BLOCK_DIMENSION_10
340
0
102
{BLKREFS
331
E8
102
}
  0
BLOCK_RECORD
  5
E9
330
1
100
AcDbSymbolTableRecord
100
AcDbBlockTableRecord
  2
SW_BLOCK_DIMENSION_11
340
0
102
{BLKREFS
331
F0
102
}
  0
BLOCK_RECORD
  5
F1
330
1
100
AcDbSymbolTableRecord
100
AcDbBlockTableRecord
  2
SW_BLOCK_DIMENSION_12
340
0
102
{BLKREFS
331
F8
102
}
  0
BLOCK_RECORD
  5
F9
330
1
100
AcDbSymbolTableRecord
100
AcDbBlockTableRecord
  2
SW_BLOCK_DIMENSION_13
340
0
102
{BLKREFS
331
100
102
}
  0
BLOCK_RECORD
  5
101
330
1
100
AcDbSymbolTableRecord
100
AcDbBlockTableRecord
  2
SW_BLOCK_DIMENSION_14
340
0
102
{BLKREFS
331
110
102
}
  0
BLOCK_RECORD
  5
111
330
1
100
AcDbSymbolTableRecord
100
AcDbBlockTableRecord
  2
SW_BLOCK_DIMENSION_15
340
0
102
{BLKREFS
331
121
102
}
  0
BLOCK_RECORD
  5
122
330
1
100
AcDbSymbolTableRecord
100
AcDbBlockTableRecord
  2
SW_BLOCK_DIMENSION_16
340
0
102
{BLKREFS
331
132
102
}
  0
BLOCK_RECORD
  5
133
330
1
100
AcDbSymbolTableRecord
100
AcDbBlockTableRecord
  2
SW_BLOCK_DIMENSION_17
340
0
102
{BLKREFS
331
143
102
}
  0
BLOCK_RECORD
  5
144
330
1
100
AcDbSymbolTableRecord
100
AcDbBlockTableRecord
  2
SW_BLOCK_DIMENSION_18
340
0
102
{BLKREFS
331
154
102
}
  0
BLOCK_RECORD
  5
155
330
1
100
AcDbSymbolTableRecord
100
AcDbBlockTableRecord
  2
SW_BLOCK_DIMENSION_19
340
0
102
{BLKREFS
331
165
102
}
  0
BLOCK_RECORD
  5
166
330
1
100
AcDbSymbolTableRecord
100
AcDbBlockTableRecord
  2
SW_NOTE_0
340
0
102
{BLKREFS
331
16B
102
}
  0
BLOCK_RECORD
  5
171
330
1
100
AcDbSymbolTableRecord
100
AcDbBlockTableRecord
  2
SW_NOTE_1
340
0
102
{BLKREFS
331
178
102
}
  0
ENDTAB
  0
ENDSEC
  0
SECTION
  2
BLOCKS
  0
BLOCK
  5
20
330
1F
100
AcDbEntity
  8
0
100
AcDbBlockBegin
  2
*Model_Space
 70
     0
 10
0.0
 20
0.0
 30
0.0
  3
*Model_Space
  1

  0
ENDBLK
  5
21
330
1F
100
AcDbEntity
  8
0
100
AcDbBlockEnd
  0
BLOCK
  5
1C
330
1B
100
AcDbEntity
 67
     1
  8
0
100
AcDbBlockBegin
  2
*Paper_Space
 70
     0
 10
0.0
 20
0.0
 30
0.0
  3
*Paper_Space
  1

  0
ENDBLK
  5
1D
330
1B
100
AcDbEntity
 67
     1
  8
0
100
AcDbBlockEnd
  0
BLOCK
  5
24
330
23
100
AcDbEntity
  8
0
100
AcDbBlockBegin
  2
*Paper_Space0
 70
     0
 10
0.0
 20
0.0
 30
0.0
  3
*Paper_Space0
  1

  0
ENDBLK
  5
25
330
23
100
AcDbEntity
  8
0
100
AcDbBlockEnd
  0
BLOCK
  5
76
330
75
100
AcDbEntity
  8
0
100
AcDbBlockBegin
  2
Block1
 70
     0
 10
0.0
 20
0.0
 30
0.0
  3
Block1
  1

  0
LINE
  5
78
330
75
100
AcDbEntity
  8
EBENE_1
100
AcDbLine
 10
363.6834285714
 20
41.3579706949
 30
0.0
 11
388.6834285714
 21
41.3579706949
 31
0.0
  0
LINE
  5
79
330
75
100
AcDbEntity
  8
EBENE_1
100
AcDbLine
 10
374.9034285714
 20
41.3579706949
 30
0.0
 11
374.9034285714
 21
171.3579706949
 31
0.0
  0
LINE
  5
7A
330
75
100
AcDbEntity
  8
EBENE_1
100
AcDbLine
 10
374.9034285714
 20
51.3579706949
 30
0.0
 11
384.9034285714
 21
51.3579706949
 31
0.0
  0
LINE
  5
7B
330
75
100
AcDbEntity
  8
EBENE_1
100
AcDbLine
 10
374.9034285714
 20
61.3579706949
 30
0.0
 11
384.9034285714
 21
61.3579706949
 31
0.0
  0
LINE
  5
7C
330
75
100
AcDbEntity
  8
EBENE_1
100
AcDbLine
 10
374.9034285714
 20
71.3579706949
 30
0.0
 11
384.9034285714
 21
71.3579706949
 31
0.0
  0
LINE
  5
7D
330
75
100
AcDbEntity
  8
EBENE_1
100
AcDbLine
 10
374.9034285714
 20
81.3579706949
 30
0.0
 11
384.9034285714
 21
81.3579706949
 31
0.0
  0
LINE
  5
7E
330
75
100
AcDbEntity
  8
EBENE_1
100
AcDbLine
 10
374.9034285714
 20
91.3579706949
 30
0.0
 11
384.9034285714
 21
91.3579706949
 31
0.0
  0
LINE
  5
7F
330
75
100
AcDbEntity
  8
EBENE_1
100
AcDbLine
 10
374.9034285714
 20
101.3579706949
 30
0.0
 11
384.9034285714
 21
101.3579706949
 31
0.0
  0
LINE
  5
80
330
75
100
AcDbEntity
  8
EBENE_1
100
AcDbLine
 10
374.9034285714
 20
111.3579706949
 30
0.0
 11
384.9034285714
 21
111.3579706949
 31
0.0
  0
LINE
  5
81
330
75
100
AcDbEntity
  8
EBENE_1
100
AcDbLine
 10
374.9034285714
 20
121.3579706949
 30
0.0
 11
384.9034285714
 21
121.3579706949
 31
0.0
  0
LINE
  5
82
330
75
100
AcDbEntity
  8
EBENE_1
100
AcDbLine
 10
374.9034285714
 20
131.3579706949
 30
0.0
 11
384.9034285714
 21
131.3579706949
 31
0.0
  0
LINE
  5
83
330
75
100
AcDbEntity
  8
EBENE_1
100
AcDbLine
 10
374.9034285714
 20
141.3579706949
 30
0.0
 11
384.9034285714
 21
141.3579706949
 31
0.0
  0
LINE
  5
84
330
75
100
AcDbEntity
  8
EBENE_1
100
AcDbLine
 10
374.9034285714
 20
151.3579706949
 30
0.0
 11
384.9034285714
 21
151.3579706949
 31
0.0
  0
LINE
  5
85
330
75
100
AcDbEntity
  8
EBENE_1
100
AcDbLine
 10
374.9034285714
 20
161.3579706949
 30
0.0
 11
384.9034285714
 21
161.3579706949
 31
0.0
  0
LINE
  5
86
330
75
100
AcDbEntity
  8
EBENE_1
100
AcDbLine
 10
374.9034285714
 20
171.3579706949
 30
0.0
 11
384.9034285714
 21
171.3579706949
 31
0.0
  0
LINE
  5
87
330
75
100
AcDbEntity
  8
EBENE_1
100
AcDbLine
 10
374.9034285714
 20
66.7579706949
 30
0.0
 11
362.9034285714
 21
66.7579706949
 31
0.0
  0
LINE
  5
88
330
75
100
AcDbEntity
  8
EBENE_1
100
AcDbLine
 10
374.9034285714
 20
92.1579706949
 30
0.0
 11
362.9034285714
 21
92.1579706949
 31
0.0
  0
LINE
  5
89
330
75
100
AcDbEntity
  8
EBENE_1
100
AcDbLine
 10
374.9034285714
 20
117.5579706949
 30
0.0
 11
362.9034285714
 21
117.5579706949
 31
0.0
  0
LINE
  5
8A
330
75
100
AcDbEntity
  8
EBENE_1
100
AcDbLine
 10
374.9034285714
 20
142.9579706949
 30
0.0
 11
362.9034285714
 21
142.9579706949
 31
0.0
  0
LINE
  5
8B
330
75
100
AcDbEntity
  8
EBENE_1
100
AcDbLine
 10
374.9034285714
 20
168.3579706949
 30
0.0
 11
362.9034285714
 21
168.3579706949
 31
0.0
  0
INSERT
  5
98
330
75
100
AcDbEntity
  8
EBENE_1
100
AcDbBlockReference
  2
SW_BLOCK_DIMENSION_0
 10
397.2096946378
 20
38.9914197296
 30
0.0
  0
INSERT
  5
A0
330
75
100
AcDbEntity
  8
EBENE_1
100
AcDbBlockReference
  2
SW_BLOCK_DIMENSION_1
 10
397.2096946378
 20
48.9914197296
 30
0.0
  0
INSERT
  5
A8
330
75
100
AcDbEntity
  8
EBENE_1
100
AcDbBlockReference
  2
SW_BLOCK_DIMENSION_2
 10
397.2096946378
 20
58.9914197296
 30
0.0
  0
INSERT
  5
B0
330
75
100
AcDbEntity
  8
EBENE_1
100
AcDbBlockReference
  2
SW_BLOCK_DIMENSION_3
 10
397.2096946378
 20
68.9914197296
 30
0.0
  0
INSERT
  5
B8
330
75
100
AcDbEntity
  8
EBENE_1
100
AcDbBlockReference
  2
SW_BLOCK_DIMENSION_4
 10
397.2096946378
 20
78.9914197296
 30
0.0
  0
INSERT
  5
C0
330
75
100
AcDbEntity
  8
EBENE_1
100
AcDbBlockReference
  2
SW_BLOCK_DIMENSION_5
 10
397.2096946378
 20
88.9914197296
 30
0.0
  0
INSERT
  5
C8
330
75
100
AcDbEntity
  8
EBENE_1
100
AcDbBlockReference
  2
SW_BLOCK_DIMENSION_6
 10
397.2096946378
 20
98.9914197296
 30
0.0
  0
INSERT
  5
D0
330
75
100
AcDbEntity
  8
EBENE_1
100
AcDbBlockReference
  2
SW_BLOCK_DIMENSION_7
 10
397.2096946378
 20
108.9914197296
 30
0.0
  0
INSERT
  5
D8
330
75
100
AcDbEntity
  8
EBENE_1
100
AcDbBlockReference
  2
SW_BLOCK_DIMENSION_8
 10
397.2096946378
 20
118.9914197296
 30
0.0
  0
INSERT
  5
E0
330
75
100
AcDbEntity
  8
EBENE_1
100
AcDbBlockReference
  2
SW_BLOCK_DIMENSION_9
 10
397.2096946378
 20
128.9914197296
 30
0.0
  0
INSERT
  5
E8
330
75
100
AcDbEntity
  8
EBENE_1
100
AcDbBlockReference
  2
SW_BLOCK_DIMENSION_10
 10
397.2096946378
 20
138.9914197296
 30
0.0
  0
INSERT
  5
F0
330
75
100
AcDbEntity
  8
EBENE_1
100
AcDbBlockReference
  2
SW_BLOCK_DIMENSION_11
 10
397.2096946378
 20
148.9914197296
 30
0.0
  0
INSERT
  5
F8
330
75
100
AcDbEntity
  8
EBENE_1
100
AcDbBlockReference
  2
SW_BLOCK_DIMENSION_12
 10
397.2096946378
 20
158.9914197296
 30
0.0
  0
INSERT
  5
100
330
75
100
AcDbEntity
  8
EBENE_1
100
AcDbBlockReference
  2
SW_BLOCK_DIMENSION_13
 10
397.2096946378
 20
168.9914197296
 30
0.0
  0
INSERT
  5
110
330
75
100
AcDbEntity
  8
EBENE_1
100
AcDbBlockReference
  2
SW_BLOCK_DIMENSION_14
 10
337.2987953614
 20
36.1691980072
 30
0.0
  0
INSERT
  5
121
330
75
100
AcDbEntity
  8
EBENE_1
100
AcDbBlockReference
  2
SW_BLOCK_DIMENSION_15
 10
337.2987953614
 20
61.5691980072
 30
0.0
  0
INSERT
  5
132
330
75
100
AcDbEntity
  8
EBENE_1
100
AcDbBlockReference
  2
SW_BLOCK_DIMENSION_16
 10
337.2987953614
 20
86.9691980072
 30
0.0
  0
INSERT
  5
143
330
75
100
AcDbEntity
  8
EBENE_1
100
AcDbBlockReference
  2
SW_BLOCK_DIMENSION_17
 10
337.2987953614
 20
112.3691980072
 30
0.0
  0
INSERT
  5
154
330
75
100
AcDbEntity
  8
EBENE_1
100
AcDbBlockReference
  2
SW_BLOCK_DIMENSION_18
 10
336.8284243759
 20
137.7691980072
 30
0.0
  0
INSERT
  5
165
330
75
100
AcDbEntity
  8
EBENE_1
100
AcDbBlockReference
  2
SW_BLOCK_DIMENSION_19
 10
337.2987953614
 20
163.1691980072
 30
0.0
  0
INSERT
  5
16B
330
75
100
AcDbEntity
  8
EBENE_1
 62
   179
100
AcDbBlockReference
  2
SW_NOTE_0
 10
337.5586028241
 20
28.8175207347
 30
0.0
  0
MTEXT
  5
16C
330
75
100
AcDbEntity
  8
EBENE_1
100
AcDbMText
 10
393.160738319
 20
33.5924424874
 30
0.0
 40
3.7041666667
 41
0.0
 71
     1
 72
     1
  1
mm
  7
SLDTEXTSTYLE0
 73
     1
 44
1.0
  0
ENDBLK
  5
77
330
75
100
AcDbEntity
  8
0
100
AcDbBlockEnd
  0
BLOCK
  5
8D
330
8C
100
AcDbEntity
  8
0
100
AcDbBlockBegin
  2
SW_BLOCK_DIMENSION_0
 70
     0
 10
0.0
 20
0.0
 30
0.0
  3
SW_BLOCK_DIMENSION_0
  1

  0
INSERT
  5
94
330
8C
100
AcDbEntity
  8
EBENE_1
 62
     0
100
AcDbBlockReference
  2
_ORIGIN
 10
-1.5805038061
 20
2.3665509652
 30
0.0
 41
0.9483022837
 42
0.9483022837
 50
0.0
  0
LINE
  5
95
330
8C
100
AcDbEntity
  8
EBENE_1
 62
     0
100
AcDbLine
 10
-6.5262660664
 20
2.3665509652
 30
0.0
 11
0.0
 21
2.3665509652
 31
0.0
  0
MTEXT
  5
97
330
8C
100
AcDbEntity
  8
EBENE_1
 62
     0
100
AcDbMText
 10
0.0
 20
4.0927900738
 30
0.0
 40
3.175
 41
0.0
 71
     1
 72
     1
  1
0
  7
SLDTEXTSTYLE0
 73
     1
 44
1.0
  0
ENDBLK
  5
8E
330
8C
100
AcDbEntity
  8
0
100
AcDbBlockEnd
  0
BLOCK
  5
90
330
8F
100
AcDbEntity
  8
0
100
AcDbBlockBegin
  2
_ORIGIN
 70
     0
 10
0.0
 20
0.0
 30
0.0
  3
_ORIGIN
  1

  0
CIRCLE
  5
92
330
8F
100
AcDbEntity
  8
0
  6
ByBlock
 62
     0
370
    -2
100
AcDbCircle
 10
0.0
 20
0.0
 30
0.0
 40
0.5
  0
LINE
  5
93
330
8F
100
AcDbEntity
  8
0
  6
ByBlock
 62
     0
370
    -2
100
AcDbLine
 10
0.0
 20
0.0
 30
0.0
 11
-1.0
 21
0.0
 31
0.0
  0
ENDBLK
  5
91
330
8F
100
AcDbEntity
  8
0
100
AcDbBlockEnd
  0
BLOCK
  5
9A
330
99
100
AcDbEntity
  8
0
100
AcDbBlockBegin
  2
SW_BLOCK_DIMENSION_1
 70
     0
 10
0.0
 20
0.0
 30
0.0
  3
SW_BLOCK_DIMENSION_1
  1

  0
SOLID
  5
9C
330
99
100
AcDbEntity
  8
EBENE_1
 62
     0
100
AcDbTrace
 10
-1.5805038061
 20
2.3665509652
 30
0.0
 11
-2.0546549479
 21
-0.7154314566
 31
0.0
 12
-1.1063526643
 22
-0.7154314566
 32
0.0
 13
-1.1063526643
 23
-0.7154314566
 33
0.0
  0
LINE
  5
9D
330
99
100
AcDbEntity
  8
EBENE_1
 62
     0
100
AcDbLine
 10
-10.3062660664
 20
2.3665509652
 30
0.0
 11
0.0
 21
2.3665509652
 31
0.0
  0
LINE
  5
9E
330
99
100
AcDbEntity
  8
EBENE_1
 62
     0
100
AcDbLine
 10
-1.5805038061
 20
-7.6334490348
 30
0.0
 11
-1.5805038061
 21
2.3665509652
 31
0.0
  0
MTEXT
  5
9F
330
99
100
AcDbEntity
  8
EBENE_1
 62
     0
100
AcDbMText
 10
0.0
 20
4.0927900738
 30
0.0
 40
3.175
 41
0.0
 71
     1
 72
     1
  1
10
  7
SLDTEXTSTYLE0
 73
     1
 44
1.0
  0
ENDBLK
  5
9B
330
99
100
AcDbEntity
  8
0
100
AcDbBlockEnd
  0
BLOCK
  5
A2
330
A1
100
AcDbEntity
  8
0
100
AcDbBlockBegin
  2
SW_BLOCK_DIMENSION_2
 70
     0
 10
0.0
 20
0.0
 30
0.0
  3
SW_BLOCK_DIMENSION_2
  1

  0
SOLID
  5
A4
330
A1
100
AcDbEntity
  8
EBENE_1
 62
     0
100
AcDbTrace
 10
-1.5805038061
 20
2.3665509652
 30
0.0
 11
-2.0546549479
 21
-0.7154314566
 31
0.0
 12
-1.1063526643
 22
-0.7154314566
 32
0.0
 13
-1.1063526643
 23
-0.7154314566
 33
0.0
  0
LINE
  5
A5
330
A1
100
AcDbEntity
  8
EBENE_1
 62
     0
100
AcDbLine
 10
-10.3062660664
 20
2.3665509652
 30
0.0
 11
0.0
 21
2.3665509652
 31
0.0
  0
LINE
  5
A6
330
A1
100
AcDbEntity
  8
EBENE_1
 62
     0
100
AcDbLine
 10
-1.5805038061
 20
-7.6334490348
 30
0.0
 11
-1.5805038061
 21
2.3665509652
 31
0.0
  0
MTEXT
  5
A7
330
A1
100
AcDbEntity
  8
EBENE_1
 62
     0
100
AcDbMText
 10
0.0
 20
4.0927900738
 30
0.0
 40
3.175
 41
0.0
 71
     1
 72
     1
  1
20
  7
SLDTEXTSTYLE0
 73
     1
 44
1.0
  0
ENDBLK
  5
A3
330
A1
100
AcDbEntity
  8
0
100
AcDbBlockEnd
  0
BLOCK
  5
AA
330
A9
100
AcDbEntity
  8
0
100
AcDbBlockBegin
  2
SW_BLOCK_DIMENSION_3
 70
     0
 10
0.0
 20
0.0
 30
0.0
  3
SW_BLOCK_DIMENSION_3
  1

  0
SOLID
  5
AC
330
A9
100
AcDbEntity
  8
EBENE_1
 62
     0
100
AcDbTrace
 10
-1.5805038061
 20
2.3665509652
 30
0.0
 11
-2.0546549479
 21
-0.7154314566
 31
0.0
 12
-1.1063526643
 22
-0.7154314566
 32
0.0
 13
-1.1063526643
 23
-0.7154314566
 33
0.0
  0
LINE
  5
AD
330
A9
100
AcDbEntity
  8
EBENE_1
 62
     0
100
AcDbLine
 10
-10.3062660664
 20
2.3665509652
 30
0.0
 11
0.0
 21
2.3665509652
 31
0.0
  0
LINE
  5
AE
330
A9
100
AcDbEntity
  8
EBENE_1
 62
     0
100
AcDbLine
 10
-1.5805038061
 20
-7.6334490348
 30
0.0
 11
-1.5805038061
 21
2.3665509652
 31
0.0
  0
MTEXT
  5
AF
330
A9
100
AcDbEntity
  8
EBENE_1
 62
     0
100
AcDbMText
 10
0.0
 20
4.0927900738
 30
0.0
 40
3.175
 41
0.0
 71
     1
 72
     1
  1
30
  7
SLDTEXTSTYLE0
 73
     1
 44
1.0
  0
ENDBLK
  5
AB
330
A9
100
AcDbEntity
  8
0
100
AcDbBlockEnd
  0
BLOCK
  5
B2
330
B1
100
AcDbEntity
  8
0
100
AcDbBlockBegin
  2
SW_BLOCK_DIMENSION_4
 70
     0
 10
0.0
 20
0.0
 30
0.0
  3
SW_BLOCK_DIMENSION_4
  1

  0
SOLID
  5
B4
330
B1
100
AcDbEntity
  8
EBENE_1
 62
     0
100
AcDbTrace
 10
-1.5805038061
 20
2.3665509652
 30
0.0
 11
-2.0546549479
 21
-0.7154314566
 31
0.0
 12
-1.1063526643
 22
-0.7154314566
 32
0.0
 13
-1.1063526643
 23
-0.7154314566
 33
0.0
  0
LINE
  5
B5
330
B1
100
AcDbEntity
  8
EBENE_1
 62
     0
100
AcDbLine
 10
-10.3062660664
 20
2.3665509652
 30
0.0
 11
0.0
 21
2.3665509652
 31
0.0
  0
LINE
  5
B6
330
B1
100
AcDbEntity
  8
EBENE_1
 62
     0
100
AcDbLine
 10
-1.5805038061
 20
-7.6334490348
 30
0.0
 11
-1.5805038061
 21
2.3665509652
 31
0.0
  0
MTEXT
  5
B7
330
B1
100
AcDbEntity
  8
EBENE_1
 62
     0
100
AcDbMText
 10
0.0
 20
4.0927900738
 30
0.0
 40
3.175
 41
0.0
 71
     1
 72
     1
  1
40
  7
SLDTEXTSTYLE0
 73
     1
 44
1.0
  0
ENDBLK
  5
B3
330
B1
100
AcDbEntity
  8
0
100
AcDbBlockEnd
  0
BLOCK
  5
BA
330
B9
100
AcDbEntity
  8
0
100
AcDbBlockBegin
  2
SW_BLOCK_DIMENSION_5
 70
     0
 10
0.0
 20
0.0
 30
0.0
  3
SW_BLOCK_DIMENSION_5
  1

  0
SOLID
  5
BC
330
B9
100
AcDbEntity
  8
EBENE_1
 62
     0
100
AcDbTrace
 10
-1.5805038061
 20
2.3665509652
 30
0.0
 11
-2.0546549479
 21
-0.7154314566
 31
0.0
 12
-1.1063526643
 22
-0.7154314566
 32
0.0
 13
-1.1063526643
 23
-0.7154314566
 33
0.0
  0
LINE
  5
BD
330
B9
100
AcDbEntity
  8
EBENE_1
 62
     0
100
AcDbLine
 10
-10.3062660664
 20
2.3665509652
 30
0.0
 11
0.0
 21
2.3665509652
 31
0.0
  0
LINE
  5
BE
330
B9
100
AcDbEntity
  8
EBENE_1
 62
     0
100
AcDbLine
 10
-1.5805038061
 20
-7.6334490348
 30
0.0
 11
-1.5805038061
 21
2.3665509652
 31
0.0
  0
MTEXT
  5
BF
330
B9
100
AcDbEntity
  8
EBENE_1
 62
     0
100
AcDbMText
 10
0.0
 20
4.0927900738
 30
0.0
 40
3.175
 41
0.0
 71
     1
 72
     1
  1
50
  7
SLDTEXTSTYLE0
 73
     1
 44
1.0
  0
ENDBLK
  5
BB
330
B9
100
AcDbEntity
  8
0
100
AcDbBlockEnd
  0
BLOCK
  5
C2
330
C1
100
AcDbEntity
  8
0
100
AcDbBlockBegin
  2
SW_BLOCK_DIMENSION_6
 70
     0
 10
0.0
 20
0.0
 30
0.0
  3
SW_BLOCK_DIMENSION_6
  1

  0
SOLID
  5
C4
330
C1
100
AcDbEntity
  8
EBENE_1
 62
     0
100
AcDbTrace
 10
-1.5805038061
 20
2.3665509652
 30
0.0
 11
-2.0546549479
 21
-0.7154314566
 31
0.0
 12
-1.1063526643
 22
-0.7154314566
 32
0.0
 13
-1.1063526643
 23
-0.7154314566
 33
0.0
  0
LINE
  5
C5
330
C1
100
AcDbEntity
  8
EBENE_1
 62
     0
100
AcDbLine
 10
-10.3062660664
 20
2.3665509652
 30
0.0
 11
0.0
 21
2.3665509652
 31
0.0
  0
LINE
  5
C6
330
C1
100
AcDbEntity
  8
EBENE_1
 62
     0
100
AcDbLine
 10
-1.5805038061
 20
-7.6334490348
 30
0.0
 11
-1.5805038061
 21
2.3665509652
 31
0.0
  0
MTEXT
  5
C7
330
C1
100
AcDbEntity
  8
EBENE_1
 62
     0
100
AcDbMText
 10
0.0
 20
4.0927900738
 30
0.0
 40
3.175
 41
0.0
 71
     1
 72
     1
  1
60
  7
SLDTEXTSTYLE0
 73
     1
 44
1.0
  0
ENDBLK
  5
C3
330
C1
100
AcDbEntity
  8
0
100
AcDbBlockEnd
  0
BLOCK
  5
CA
330
C9
100
AcDbEntity
  8
0
100
AcDbBlockBegin
  2
SW_BLOCK_DIMENSION_7
 70
     0
 10
0.0
 20
0.0
 30
0.0
  3
SW_BLOCK_DIMENSION_7
  1

  0
SOLID
  5
CC
330
C9
100
AcDbEntity
  8
EBENE_1
 62
     0
100
AcDbTrace
 10
-1.5805038061
 20
2.3665509652
 30
0.0
 11
-2.0546549479
 21
-0.7154314566
 31
0.0
 12
-1.1063526643
 22
-0.7154314566
 32
0.0
 13
-1.1063526643
 23
-0.7154314566
 33
0.0
  0
LINE
  5
CD
330
C9
100
AcDbEntity
  8
EBENE_1
 62
     0
100
AcDbLine
 10
-10.3062660664
 20
2.3665509652
 30
0.0
 11
0.0
 21
2.3665509652
 31
0.0
  0
LINE
  5
CE
330
C9
100
AcDbEntity
  8
EBENE_1
 62
     0
100
AcDbLine
 10
-1.5805038061
 20
-7.6334490348
 30
0.0
 11
-1.5805038061
 21
2.3665509652
 31
0.0
  0
MTEXT
  5
CF
330
C9
100
AcDbEntity
  8
EBENE_1
 62
     0
100
AcDbMText
 10
0.0
 20
4.0927900738
 30
0.0
 40
3.175
 41
0.0
 71
     1
 72
     1
  1
70
  7
SLDTEXTSTYLE0
 73
     1
 44
1.0
  0
ENDBLK
  5
CB
330
C9
100
AcDbEntity
  8
0
100
AcDbBlockEnd
  0
BLOCK
  5
D2
330
D1
100
AcDbEntity
  8
0
100
AcDbBlockBegin
  2
SW_BLOCK_DIMENSION_8
 70
     0
 10
0.0
 20
0.0
 30
0.0
  3
SW_BLOCK_DIMENSION_8
  1

  0
SOLID
  5
D4
330
D1
100
AcDbEntity
  8
EBENE_1
 62
     0
100
AcDbTrace
 10
-1.5805038061
 20
2.3665509652
 30
0.0
 11
-2.0546549479
 21
-0.7154314566
 31
0.0
 12
-1.1063526643
 22
-0.7154314566
 32
0.0
 13
-1.1063526643
 23
-0.7154314566
 33
0.0
  0
LINE
  5
D5
330
D1
100
AcDbEntity
  8
EBENE_1
 62
     0
100
AcDbLine
 10
-10.3062660664
 20
2.3665509652
 30
0.0
 11
0.0
 21
2.3665509652
 31
0.0
  0
LINE
  5
D6
330
D1
100
AcDbEntity
  8
EBENE_1
 62
     0
100
AcDbLine
 10
-1.5805038061
 20
-7.6334490348
 30
0.0
 11
-1.5805038061
 21
2.3665509652
 31
0.0
  0
MTEXT
  5
D7
330
D1
100
AcDbEntity
  8
EBENE_1
 62
     0
100
AcDbMText
 10
0.0
 20
4.0927900738
 30
0.0
 40
3.175
 41
0.0
 71
     1
 72
     1
  1
80
  7
SLDTEXTSTYLE0
 73
     1
 44
1.0
  0
ENDBLK
  5
D3
330
D1
100
AcDbEntity
  8
0
100
AcDbBlockEnd
  0
BLOCK
  5
DA
330
D9
100
AcDbEntity
  8
0
100
AcDbBlockBegin
  2
SW_BLOCK_DIMENSION_9
 70
     0
 10
0.0
 20
0.0
 30
0.0
  3
SW_BLOCK_DIMENSION_9
  1

  0
SOLID
  5
DC
330
D9
100
AcDbEntity
  8
EBENE_1
 62
     0
100
AcDbTrace
 10
-1.5805038061
 20
2.3665509652
 30
0.0
 11
-2.0546549479
 21
-0.7154314566
 31
0.0
 12
-1.1063526643
 22
-0.7154314566
 32
0.0
 13
-1.1063526643
 23
-0.7154314566
 33
0.0
  0
LINE
  5
DD
330
D9
100
AcDbEntity
  8
EBENE_1
 62
     0
100
AcDbLine
 10
-10.3062660664
 20
2.3665509652
 30
0.0
 11
0.0
 21
2.3665509652
 31
0.0
  0
LINE
  5
DE
330
D9
100
AcDbEntity
  8
EBENE_1
 62
     0
100
AcDbLine
 10
-1.5805038061
 20
-7.6334490348
 30
0.0
 11
-1.5805038061
 21
2.3665509652
 31
0.0
  0
MTEXT
  5
DF
330
D9
100
AcDbEntity
  8
EBENE_1
 62
     0
100
AcDbMText
 10
0.0
 20
4.0927900738
 30
0.0
 40
3.175
 41
0.0
 71
     1
 72
     1
  1
90
  7
SLDTEXTSTYLE0
 73
     1
 44
1.0
  0
ENDBLK
  5
DB
330
D9
100
AcDbEntity
  8
0
100
AcDbBlockEnd
  0
BLOCK
  5
E2
330
E1
100
AcDbEntity
  8
0
100
AcDbBlockBegin
  2
SW_BLOCK_DIMENSION_10
 70
     0
 10
0.0
 20
0.0
 30
0.0
  3
SW_BLOCK_DIMENSION_10
  1

  0
SOLID
  5
E4
330
E1
100
AcDbEntity
  8
EBENE_1
 62
     0
100
AcDbTrace
 10
-1.5805038061
 20
2.3665509652
 30
0.0
 11
-2.0546549479
 21
-0.7154314566
 31
0.0
 12
-1.1063526643
 22
-0.7154314566
 32
0.0
 13
-1.1063526643
 23
-0.7154314566
 33
0.0
  0
LINE
  5
E5
330
E1
100
AcDbEntity
  8
EBENE_1
 62
     0
100
AcDbLine
 10
-10.3062660664
 20
2.3665509652
 30
0.0
 11
0.0
 21
2.3665509652
 31
0.0
  0
LINE
  5
E6
330
E1
100
AcDbEntity
  8
EBENE_1
 62
     0
100
AcDbLine
 10
-1.5805038061
 20
-7.6334490348
 30
0.0
 11
-1.5805038061
 21
2.3665509652
 31
0.0
  0
MTEXT
  5
E7
330
E1
100
AcDbEntity
  8
EBENE_1
 62
     0
100
AcDbMText
 10
0.0
 20
4.0927900738
 30
0.0
 40
3.175
 41
0.0
 71
     1
 72
     1
  1
100
  7
SLDTEXTSTYLE0
 73
     1
 44
1.0
  0
ENDBLK
  5
E3
330
E1
100
AcDbEntity
  8
0
100
AcDbBlockEnd
  0
BLOCK
  5
EA
330
E9
100
AcDbEntity
  8
0
100
AcDbBlockBegin
  2
SW_BLOCK_DIMENSION_11
 70
     0
 10
0.0
 20
0.0
 30
0.0
  3
SW_BLOCK_DIMENSION_11
  1

  0
SOLID
  5
EC
330
E9
100
AcDbEntity
  8
EBENE_1
 62
     0
100
AcDbTrace
 10
-1.5805038061
 20
2.3665509652
 30
0.0
 11
-2.0546549479
 21
-0.7154314566
 31
0.0
 12
-1.1063526643
 22
-0.7154314566
 32
0.0
 13
-1.1063526643
 23
-0.7154314566
 33
0.0
  0
LINE
  5
ED
330
E9
100
AcDbEntity
  8
EBENE_1
 62
     0
100
AcDbLine
 10
-10.3062660664
 20
2.3665509652
 30
0.0
 11
0.0
 21
2.3665509652
 31
0.0
  0
LINE
  5
EE
330
E9
100
AcDbEntity
  8
EBENE_1
 62
     0
100
AcDbLine
 10
-1.5805038061
 20
-7.6334490348
 30
0.0
 11
-1.5805038061
 21
2.3665509652
 31
0.0
  0
MTEXT
  5
EF
330
E9
100
AcDbEntity
  8
EBENE_1
 62
     0
100
AcDbMText
 10
0.0
 20
4.0927900738
 30
0.0
 40
3.175
 41
0.0
 71
     1
 72
     1
  1
110
  7
SLDTEXTSTYLE0
 73
     1
 44
1.0
  0
ENDBLK
  5
EB
330
E9
100
AcDbEntity
  8
0
100
AcDbBlockEnd
  0
BLOCK
  5
F2
330
F1
100
AcDbEntity
  8
0
100
AcDbBlockBegin
  2
SW_BLOCK_DIMENSION_12
 70
     0
 10
0.0
 20
0.0
 30
0.0
  3
SW_BLOCK_DIMENSION_12
  1

  0
SOLID
  5
F4
330
F1
100
AcDbEntity
  8
EBENE_1
 62
     0
100
AcDbTrace
 10
-1.5805038061
 20
2.3665509652
 30
0.0
 11
-2.0546549479
 21
-0.7154314566
 31
0.0
 12
-1.1063526643
 22
-0.7154314566
 32
0.0
 13
-1.1063526643
 23
-0.7154314566
 33
0.0
  0
LINE
  5
F5
330
F1
100
AcDbEntity
  8
EBENE_1
 62
     0
100
AcDbLine
 10
-10.3062660664
 20
2.3665509652
 30
0.0
 11
0.0
 21
2.3665509652
 31
0.0
  0
LINE
  5
F6
330
F1
100
AcDbEntity
  8
EBENE_1
 62
     0
100
AcDbLine
 10
-1.5805038061
 20
-7.6334490348
 30
0.0
 11
-1.5805038061
 21
2.3665509652
 31
0.0
  0
MTEXT
  5
F7
330
F1
100
AcDbEntity
  8
EBENE_1
 62
     0
100
AcDbMText
 10
0.0
 20
4.0927900738
 30
0.0
 40
3.175
 41
0.0
 71
     1
 72
     1
  1
120
  7
SLDTEXTSTYLE0
 73
     1
 44
1.0
  0
ENDBLK
  5
F3
330
F1
100
AcDbEntity
  8
0
100
AcDbBlockEnd
  0
BLOCK
  5
FA
330
F9
100
AcDbEntity
  8
0
100
AcDbBlockBegin
  2
SW_BLOCK_DIMENSION_13
 70
     0
 10
0.0
 20
0.0
 30
0.0
  3
SW_BLOCK_DIMENSION_13
  1

  0
SOLID
  5
FC
330
F9
100
AcDbEntity
  8
EBENE_1
 62
     0
100
AcDbTrace
 10
-1.5805038061
 20
2.3665509652
 30
0.0
 11
-2.0546549479
 21
-0.7154314566
 31
0.0
 12
-1.1063526643
 22
-0.7154314566
 32
0.0
 13
-1.1063526643
 23
-0.7154314566
 33
0.0
  0
LINE
  5
FD
330
F9
100
AcDbEntity
  8
EBENE_1
 62
     0
100
AcDbLine
 10
-10.3062660664
 20
2.3665509652
 30
0.0
 11
0.0
 21
2.3665509652
 31
0.0
  0
LINE
  5
FE
330
F9
100
AcDbEntity
  8
EBENE_1
 62
     0
100
AcDbLine
 10
-1.5805038061
 20
-7.6334490348
 30
0.0
 11
-1.5805038061
 21
2.3665509652
 31
0.0
  0
MTEXT
  5
FF
330
F9
100
AcDbEntity
  8
EBENE_1
 62
     0
100
AcDbMText
 10
0.0
 20
4.0927900738
 30
0.0
 40
3.175
 41
0.0
 71
     1
 72
     1
  1
130
  7
SLDTEXTSTYLE0
 73
     1
 44
1.0
  0
ENDBLK
  5
FB
330
F9
100
AcDbEntity
  8
0
100
AcDbBlockEnd
  0
BLOCK
  5
102
330
101
100
AcDbEntity
  8
0
100
AcDbBlockBegin
  2
SW_BLOCK_DIMENSION_14
 70
     0
 10
0.0
 20
0.0
 30
0.0
  3
SW_BLOCK_DIMENSION_14
  1

  0
INSERT
  5
104
330
101
100
AcDbEntity
  8
EBENE_1
 62
     0
100
AcDbBlockReference
  2
_ORIGIN
 10
16.3971707594
 20
5.1887726877
 30
0.0
 41
0.9483022837
 42
0.9483022837
 50
0.0
  0
LINE
  5
105
330
101
100
AcDbEntity
  8
EBENE_1
 62
     0
100
AcDbLine
 10
3.2925925916
 20
9.671990294
 30
0.0
 11
2.2342592711
 21
9.671990294
 31
0.0
  0
LINE
  5
106
330
101
100
AcDbEntity
  8
EBENE_1
 62
     0
100
AcDbLine
 10
2.2342592711
 20
9.671990294
 30
0.0
 11
2.2342592711
 21
4.9388883635
 31
0.0
  0
LINE
  5
107
330
101
100
AcDbEntity
  8
EBENE_1
 62
     0
100
AcDbLine
 10
2.2342592711
 20
4.9388883635
 30
0.0
 11
3.2925925916
 21
4.9388883635
 31
0.0
  0
LINE
  5
108
330
101
100
AcDbEntity
  8
EBENE_1
 62
     0
100
AcDbLine
 10
11.5240741288
 20
9.671990294
 30
0.0
 11
12.5824074494
 21
9.671990294
 31
0.0
  0
LINE
  5
109
330
101
100
AcDbEntity
  8
EBENE_1
 62
     0
100
AcDbLine
 10
12.5824074494
 20
9.671990294
 30
0.0
 11
12.5824074494
 21
4.9388883635
 31
0.0
  0
LINE
  5
10A
330
101
100
AcDbEntity
  8
EBENE_1
 62
     0
100
AcDbLine
 10
12.5824074494
 20
4.9388883635
 30
0.0
 11
11.5240741288
 21
4.9388883635
 31
0.0
  0
LINE
  5
10B
330
101
100
AcDbEntity
  8
EBENE_1
 62
     0
100
AcDbLine
 10
24.38463321
 20
5.1887726877
 30
0.0
 11
14.8166669533
 21
5.1887726877
 31
0.0
  0
MTEXT
  5
10C
330
101
100
AcDbEntity
  8
EBENE_1
 62
     0
100
AcDbMText
 10
1.190625
 20
4.0927900738
 30
0.0
 40
3.175
 41
0.0
 71
     1
 72
     1
  1

  7
SLDTEXTSTYLE0
 73
     1
 44
1.0
  0
MTEXT
  5
10D
330
101
100
AcDbEntity
  8
EBENE_1
 62
     0
100
AcDbMText
 10
3.2925925916
 20
9.0316784373
 30
0.0
 40
3.175
 41
0.0
 71
     1
 72
     1
  1
0,00
  7
SLDTEXTSTYLE0
 73
     1
 44
1.0
  0
MTEXT
  5
10E
330
101
100
AcDbEntity
  8
EBENE_1
 62
     0
100
AcDbMText
 10
6.2324074097
 20
4.0927898409
 30
0.0
 40
3.175
 41
0.0
 71
     1
 72
     1
  1
0
  7
SLDTEXTSTYLE0
 73
     1
 44
1.0
  0
MTEXT
  5
10F
330
101
100
AcDbEntity
  8
EBENE_1
 62
     0
100
AcDbMText
 10
14.8313658863
 20
4.0927900738
 30
0.0
 40
3.175
 41
0.0
 71
     1
 72
     1
  1

  7
SLDTEXTSTYLE0
 73
     1
 44
1.0
  0
ENDBLK
  5
103
330
101
100
AcDbEntity
  8
0
100
AcDbBlockEnd
  0
BLOCK
  5
112
330
111
100
AcDbEntity
  8
0
100
AcDbBlockBegin
  2
SW_BLOCK_DIMENSION_15
 70
     0
 10
0.0
 20
0.0
 30
0.0
  3
SW_BLOCK_DIMENSION_15
  1

  0
SOLID
  5
114
330
111
100
AcDbEntity
  8
EBENE_1
 62
     0
100
AcDbTrace
 10
16.3971707594
 20
5.1887726877
 30
0.0
 11
15.9230196175
 21
2.1067902658
 31
0.0
 12
16.8713219012
 22
2.1067902658
 32
0.0
 13
16.8713219012
 23
2.1067902658
 33
0.0
  0
LINE
  5
115
330
111
100
AcDbEntity
  8
EBENE_1
 62
     0
100
AcDbLine
 10
3.2925925916
 20
9.671990294
 30
0.0
 11
2.2342592711
 21
9.671990294
 31
0.0
  0
LINE
  5
116
330
111
100
AcDbEntity
  8
EBENE_1
 62
     0
100
AcDbLine
 10
2.2342592711
 20
9.671990294
 30
0.0
 11
2.2342592711
 21
4.9388883635
 31
0.0
  0
LINE
  5
117
330
111
100
AcDbEntity
  8
EBENE_1
 62
     0
100
AcDbLine
 10
2.2342592711
 20
4.9388883635
 30
0.0
 11
3.2925925916
 21
4.9388883635
 31
0.0
  0
LINE
  5
118
330
111
100
AcDbEntity
  8
EBENE_1
 62
     0
100
AcDbLine
 10
11.5240741288
 20
9.671990294
 30
0.0
 11
12.5824074494
 21
9.671990294
 31
0.0
  0
LINE
  5
119
330
111
100
AcDbEntity
  8
EBENE_1
 62
     0
100
AcDbLine
 10
12.5824074494
 20
9.671990294
 30
0.0
 11
12.5824074494
 21
4.9388883635
 31
0.0
  0
LINE
  5
11A
330
111
100
AcDbEntity
  8
EBENE_1
 62
     0
100
AcDbLine
 10
12.5824074494
 20
4.9388883635
 30
0.0
 11
11.5240741288
 21
4.9388883635
 31
0.0
  0
LINE
  5
11B
330
111
100
AcDbEntity
  8
EBENE_1
 62
     0
100
AcDbLine
 10
23.60463321
 20
5.1887726877
 30
0.0
 11
14.8166669533
 21
5.1887726877
 31
0.0
  0
LINE
  5
11C
330
111
100
AcDbEntity
  8
EBENE_1
 62
     0
100
AcDbLine
 10
16.3971707594
 20
-20.2112273123
 30
0.0
 11
16.3971707594
 21
5.1887726877
 31
0.0
  0
MTEXT
  5
11D
330
111
100
AcDbEntity
  8
EBENE_1
 62
     0
100
AcDbMText
 10
1.190625
 20
4.0927900738
 30
0.0
 40
3.175
 41
0.0
 71
     1
 72
     1
  1

  7
SLDTEXTSTYLE0
 73
     1
 44
1.0
  0
MTEXT
  5
11E
330
111
100
AcDbEntity
  8
EBENE_1
 62
     0
100
AcDbMText
 10
3.2925925916
 20
9.0316784373
 30
0.0
 40
3.175
 41
0.0
 71
     1
 72
     1
  1
1,00
  7
SLDTEXTSTYLE0
 73
     1
 44
1.0
  0
MTEXT
  5
11F
330
111
100
AcDbEntity
  8
EBENE_1
 62
     0
100
AcDbMText
 10
2.1166665247
 20
4.0927898409
 30
0.0
 40
3.175
 41
0.0
 71
     1
 72
     1
  1
25,40
  7
SLDTEXTSTYLE0
 73
     1
 44
1.0
  0
MTEXT
  5
120
330
111
100
AcDbEntity
  8
EBENE_1
 62
     0
100
AcDbMText
 10
14.8313658863
 20
4.0927900738
 30
0.0
 40
3.175
 41
0.0
 71
     1
 72
     1
  1

  7
SLDTEXTSTYLE0
 73
     1
 44
1.0
  0
ENDBLK
  5
113
330
111
100
AcDbEntity
  8
0
100
AcDbBlockEnd
  0
BLOCK
  5
123
330
122
100
AcDbEntity
  8
0
100
AcDbBlockBegin
  2
SW_BLOCK_DIMENSION_16
 70
     0
 10
0.0
 20
0.0
 30
0.0
  3
SW_BLOCK_DIMENSION_16
  1

  0
SOLID
  5
125
330
122
100
AcDbEntity
  8
EBENE_1
 62
     0
100
AcDbTrace
 10
16.3971707594
 20
5.1887726877
 30
0.0
 11
15.9230196175
 21
2.1067902658
 31
0.0
 12
16.8713219012
 22
2.1067902658
 32
0.0
 13
16.8713219012
 23
2.1067902658
 33
0.0
  0
LINE
  5
126
330
122
100
AcDbEntity
  8
EBENE_1
 62
     0
100
AcDbLine
 10
3.2925925916
 20
9.671990294
 30
0.0
 11
2.2342592711
 21
9.671990294
 31
0.0
  0
LINE
  5
127
330
122
100
AcDbEntity
  8
EBENE_1
 62
     0
100
AcDbLine
 10
2.2342592711
 20
9.671990294
 30
0.0
 11
2.2342592711
 21
4.9388883635
 31
0.0
  0
LINE
  5
128
330
122
100
AcDbEntity
  8
EBENE_1
 62
     0
100
AcDbLine
 10
2.2342592711
 20
4.9388883635
 30
0.0
 11
3.2925925916
 21
4.9388883635
 31
0.0
  0
LINE
  5
129
330
122
100
AcDbEntity
  8
EBENE_1
 62
     0
100
AcDbLine
 10
11.5240741288
 20
9.671990294
 30
0.0
 11
12.5824074494
 21
9.671990294
 31
0.0
  0
LINE
  5
12A
330
122
100
AcDbEntity
  8
EBENE_1
 62
     0
100
AcDbLine
 10
12.5824074494
 20
9.671990294
 30
0.0
 11
12.5824074494
 21
4.9388883635
 31
0.0
  0
LINE
  5
12B
330
122
100
AcDbEntity
  8
EBENE_1
 62
     0
100
AcDbLine
 10
12.5824074494
 20
4.9388883635
 30
0.0
 11
11.5240741288
 21
4.9388883635
 31
0.0
  0
LINE
  5
12C
330
122
100
AcDbEntity
  8
EBENE_1
 62
     0
100
AcDbLine
 10
23.60463321
 20
5.1887726877
 30
0.0
 11
14.8166669533
 21
5.1887726877
 31
0.0
  0
LINE
  5
12D
330
122
100
AcDbEntity
  8
EBENE_1
 62
     0
100
AcDbLine
 10
16.3971707594
 20
-20.2112273123
 30
0.0
 11
16.3971707594
 21
5.1887726877
 31
0.0
  0
MTEXT
  5
12E
330
122
100
AcDbEntity
  8
EBENE_1
 62
     0
100
AcDbMText
 10
1.190625
 20
4.0927900738
 30
0.0
 40
3.175
 41
0.0
 71
     1
 72
     1
  1

  7
SLDTEXTSTYLE0
 73
     1
 44
1.0
  0
MTEXT
  5
12F
330
122
100
AcDbEntity
  8
EBENE_1
 62
     0
100
AcDbMText
 10
3.2925925916
 20
9.0316784373
 30
0.0
 40
3.175
 41
0.0
 71
     1
 72
     1
  1
2,00
  7
SLDTEXTSTYLE0
 73
     1
 44
1.0
  0
MTEXT
  5
130
330
122
100
AcDbEntity
  8
EBENE_1
 62
     0
100
AcDbMText
 10
2.1166665247
 20
4.0927898409
 30
0.0
 40
3.175
 41
0.0
 71
     1
 72
     1
  1
50,80
  7
SLDTEXTSTYLE0
 73
     1
 44
1.0
  0
MTEXT
  5
131
330
122
100
AcDbEntity
  8
EBENE_1
 62
     0
100
AcDbMText
 10
14.8313658863
 20
4.0927900738
 30
0.0
 40
3.175
 41
0.0
 71
     1
 72
     1
  1

  7
SLDTEXTSTYLE0
 73
     1
 44
1.0
  0
ENDBLK
  5
124
330
122
100
AcDbEntity
  8
0
100
AcDbBlockEnd
  0
BLOCK
  5
134
330
133
100
AcDbEntity
  8
0
100
AcDbBlockBegin
  2
SW_BLOCK_DIMENSION_17
 70
     0
 10
0.0
 20
0.0
 30
0.0
  3
SW_BLOCK_DIMENSION_17
  1

  0
SOLID
  5
136
330
133
100
AcDbEntity
  8
EBENE_1
 62
     0
100
AcDbTrace
 10
16.3971707594
 20
5.1887726877
 30
0.0
 11
15.9230196175
 21
2.1067902658
 31
0.0
 12
16.8713219012
 22
2.1067902658
 32
0.0
 13
16.8713219012
 23
2.1067902658
 33
0.0
  0
LINE
  5
137
330
133
100
AcDbEntity
  8
EBENE_1
 62
     0
100
AcDbLine
 10
3.2925925916
 20
9.671990294
 30
0.0
 11
2.2342592711
 21
9.671990294
 31
0.0
  0
LINE
  5
138
330
133
100
AcDbEntity
  8
EBENE_1
 62
     0
100
AcDbLine
 10
2.2342592711
 20
9.671990294
 30
0.0
 11
2.2342592711
 21
4.9388883635
 31
0.0
  0
LINE
  5
139
330
133
100
AcDbEntity
  8
EBENE_1
 62
     0
100
AcDbLine
 10
2.2342592711
 20
4.9388883635
 30
0.0
 11
3.2925925916
 21
4.9388883635
 31
0.0
  0
LINE
  5
13A
330
133
100
AcDbEntity
  8
EBENE_1
 62
     0
100
AcDbLine
 10
11.5240741288
 20
9.671990294
 30
0.0
 11
12.5824074494
 21
9.671990294
 31
0.0
  0
LINE
  5
13B
330
133
100
AcDbEntity
  8
EBENE_1
 62
     0
100
AcDbLine
 10
12.5824074494
 20
9.671990294
 30
0.0
 11
12.5824074494
 21
4.9388883635
 31
0.0
  0
LINE
  5
13C
330
133
100
AcDbEntity
  8
EBENE_1
 62
     0
100
AcDbLine
 10
12.5824074494
 20
4.9388883635
 30
0.0
 11
11.5240741288
 21
4.9388883635
 31
0.0
  0
LINE
  5
13D
330
133
100
AcDbEntity
  8
EBENE_1
 62
     0
100
AcDbLine
 10
23.60463321
 20
5.1887726877
 30
0.0
 11
14.8166669533
 21
5.1887726877
 31
0.0
  0
LINE
  5
13E
330
133
100
AcDbEntity
  8
EBENE_1
 62
     0
100
AcDbLine
 10
16.3971707594
 20
-20.2112273123
 30
0.0
 11
16.3971707594
 21
5.1887726877
 31
0.0
  0
MTEXT
  5
13F
330
133
100
AcDbEntity
  8
EBENE_1
 62
     0
100
AcDbMText
 10
1.190625
 20
4.0927900738
 30
0.0
 40
3.175
 41
0.0
 71
     1
 72
     1
  1

  7
SLDTEXTSTYLE0
 73
     1
 44
1.0
  0
MTEXT
  5
140
330
133
100
AcDbEntity
  8
EBENE_1
 62
     0
100
AcDbMText
 10
3.2925925916
 20
9.0316784373
 30
0.0
 40
3.175
 41
0.0
 71
     1
 72
     1
  1
3,00
  7
SLDTEXTSTYLE0
 73
     1
 44
1.0
  0
MTEXT
  5
141
330
133
100
AcDbEntity
  8
EBENE_1
 62
     0
100
AcDbMText
 10
2.1166665247
 20
4.0927898409
 30
0.0
 40
3.175
 41
0.0
 71
     1
 72
     1
  1
76,20
  7
SLDTEXTSTYLE0
 73
     1
 44
1.0
  0
MTEXT
  5
142
330
133
100
AcDbEntity
  8
EBENE_1
 62
     0
100
AcDbMText
 10
14.8313658863
 20
4.0927900738
 30
0.0
 40
3.175
 41
0.0
 71
     1
 72
     1
  1

  7
SLDTEXTSTYLE0
 73
     1
 44
1.0
  0
ENDBLK
  5
135
330
133
100
AcDbEntity
  8
0
100
AcDbBlockEnd
  0
BLOCK
  5
145
330
144
100
AcDbEntity
  8
0
100
AcDbBlockBegin
  2
SW_BLOCK_DIMENSION_18
 70
     0
 10
0.0
 20
0.0
 30
0.0
  3
SW_BLOCK_DIMENSION_18
  1

  0
SOLID
  5
147
330
144
100
AcDbEntity
  8
EBENE_1
 62
     0
100
AcDbTrace
 10
16.8675417449
 20
5.1887726877
 30
0.0
 11
16.3933906031
 21
2.1067902658
 31
0.0
 12
17.3416928867
 22
2.1067902658
 32
0.0
 13
17.3416928867
 23
2.1067902658
 33
0.0
  0
LINE
  5
148
330
144
100
AcDbEntity
  8
EBENE_1
 62
     0
100
AcDbLine
 10
3.5277780844
 20
9.671990294
 30
0.0
 11
2.4694447638
 21
9.671990294
 31
0.0
  0
LINE
  5
149
330
144
100
AcDbEntity
  8
EBENE_1
 62
     0
100
AcDbLine
 10
2.4694447638
 20
9.671990294
 30
0.0
 11
2.4694447638
 21
4.9388883635
 31
0.0
  0
LINE
  5
14A
330
144
100
AcDbEntity
  8
EBENE_1
 62
     0
100
AcDbLine
 10
2.4694447638
 20
4.9388883635
 30
0.0
 11
3.5277780844
 21
4.9388883635
 31
0.0
  0
LINE
  5
14B
330
144
100
AcDbEntity
  8
EBENE_1
 62
     0
100
AcDbLine
 10
11.7592596216
 20
9.671990294
 30
0.0
 11
12.8175929422
 21
9.671990294
 31
0.0
  0
LINE
  5
14C
330
144
100
AcDbEntity
  8
EBENE_1
 62
     0
100
AcDbLine
 10
12.8175929422
 20
9.671990294
 30
0.0
 11
12.8175929422
 21
4.9388883635
 31
0.0
  0
LINE
  5
14D
330
144
100
AcDbEntity
  8
EBENE_1
 62
     0
100
AcDbLine
 10
12.8175929422
 20
4.9388883635
 30
0.0
 11
11.7592596216
 21
4.9388883635
 31
0.0
  0
LINE
  5
14E
330
144
100
AcDbEntity
  8
EBENE_1
 62
     0
100
AcDbLine
 10
24.0750041956
 20
5.1887726877
 30
0.0
 11
15.2870379388
 21
5.1887726877
 31
0.0
  0
LINE
  5
14F
330
144
100
AcDbEntity
  8
EBENE_1
 62
     0
100
AcDbLine
 10
16.8675417449
 20
-20.2112273123
 30
0.0
 11
16.8675417449
 21
5.1887726877
 31
0.0
  0
MTEXT
  5
150
330
144
100
AcDbEntity
  8
EBENE_1
 62
     0
100
AcDbMText
 10
1.190625
 20
4.0927900738
 30
0.0
 40
3.175
 41
0.0
 71
     1
 72
     1
  1

  7
SLDTEXTSTYLE0
 73
     1
 44
1.0
  0
MTEXT
  5
151
330
144
100
AcDbEntity
  8
EBENE_1
 62
     0
100
AcDbMText
 10
3.5277780844
 20
9.0316784373
 30
0.0
 40
3.175
 41
0.0
 71
     1
 72
     1
  1
4,00
  7
SLDTEXTSTYLE0
 73
     1
 44
1.0
  0
MTEXT
  5
152
330
144
100
AcDbEntity
  8
EBENE_1
 62
     0
100
AcDbMText
 10
1.1759259505
 20
4.0927898409
 30
0.0
 40
3.175
 41
0.0
 71
     1
 72
     1
  1
101,60
  7
SLDTEXTSTYLE0
 73
     1
 44
1.0
  0
MTEXT
  5
153
330
144
100
AcDbEntity
  8
EBENE_1
 62
     0
100
AcDbMText
 10
15.3017368719
 20
4.0927900738
 30
0.0
 40
3.175
 41
0.0
 71
     1
 72
     1
  1

  7
SLDTEXTSTYLE0
 73
     1
 44
1.0
  0
ENDBLK
  5
146
330
144
100
AcDbEntity
  8
0
100
AcDbBlockEnd
  0
BLOCK
  5
156
330
155
100
AcDbEntity
  8
0
100
AcDbBlockBegin
  2
SW_BLOCK_DIMENSION_19
 70
     0
 10
0.0
 20
0.0
 30
0.0
  3
SW_BLOCK_DIMENSION_19
  1

  0
SOLID
  5
158
330
155
100
AcDbEntity
  8
EBENE_1
 62
     0
100
AcDbTrace
 10
16.3971707594
 20
5.1887726877
 30
0.0
 11
15.9230196175
 21
2.1067902658
 31
0.0
 12
16.8713219012
 22
2.1067902658
 32
0.0
 13
16.8713219012
 23
2.1067902658
 33
0.0
  0
LINE
  5
159
330
155
100
AcDbEntity
  8
EBENE_1
 62
     0
100
AcDbLine
 10
3.2925925916
 20
9.671990294
 30
0.0
 11
2.2342592711
 21
9.671990294
 31
0.0
  0
LINE
  5
15A
330
155
100
AcDbEntity
  8
EBENE_1
 62
     0
100
AcDbLine
 10
2.2342592711
 20
9.671990294
 30
0.0
 11
2.2342592711
 21
4.9388883635
 31
0.0
  0
LINE
  5
15B
330
155
100
AcDbEntity
  8
EBENE_1
 62
     0
100
AcDbLine
 10
2.2342592711
 20
4.9388883635
 30
0.0
 11
3.2925925916
 21
4.9388883635
 31
0.0
  0
LINE
  5
15C
330
155
100
AcDbEntity
  8
EBENE_1
 62
     0
100
AcDbLine
 10
11.5240741288
 20
9.671990294
 30
0.0
 11
12.5824074494
 21
9.671990294
 31
0.0
  0
LINE
  5
15D
330
155
100
AcDbEntity
  8
EBENE_1
 62
     0
100
AcDbLine
 10
12.5824074494
 20
9.671990294
 30
0.0
 11
12.5824074494
 21
4.9388883635
 31
0.0
  0
LINE
  5
15E
330
155
100
AcDbEntity
  8
EBENE_1
 62
     0
100
AcDbLine
 10
12.5824074494
 20
4.9388883635
 30
0.0
 11
11.5240741288
 21
4.9388883635
 31
0.0
  0
LINE
  5
15F
330
155
100
AcDbEntity
  8
EBENE_1
 62
     0
100
AcDbLine
 10
23.60463321
 20
5.1887726877
 30
0.0
 11
14.8166669533
 21
5.1887726877
 31
0.0
  0
LINE
  5
160
330
155
100
AcDbEntity
  8
EBENE_1
 62
     0
100
AcDbLine
 10
16.3971707594
 20
-20.2112273123
 30
0.0
 11
16.3971707594
 21
5.1887726877
 31
0.0
  0
MTEXT
  5
161
330
155
100
AcDbEntity
  8
EBENE_1
 62
     0
100
AcDbMText
 10
1.190625
 20
4.0927900738
 30
0.0
 40
3.175
 41
0.0
 71
     1
 72
     1
  1

  7
SLDTEXTSTYLE0
 73
     1
 44
1.0
  0
MTEXT
  5
162
330
155
100
AcDbEntity
  8
EBENE_1
 62
     0
100
AcDbMText
 10
3.2925925916
 20
9.0316784373
 30
0.0
 40
3.175
 41
0.0
 71
     1
 72
     1
  1
5,00
  7
SLDTEXTSTYLE0
 73
     1
 44
1.0
  0
MTEXT
  5
163
330
155
100
AcDbEntity
  8
EBENE_1
 62
     0
100
AcDbMText
 10
3.8805556251
 20
4.0927898409
 30
0.0
 40
3.175
 41
0.0
 71
     1
 72
     1
  1
127
  7
SLDTEXTSTYLE0
 73
     1
 44
1.0
  0
MTEXT
  5
164
330
155
100
AcDbEntity
  8
EBENE_1
 62
     0
100
AcDbMText
 10
14.8313658863
 20
4.0927900738
 30
0.0
 40
3.175
 41
0.0
 71
     1
 72
     1
  1

  7
SLDTEXTSTYLE0
 73
     1
 44
1.0
  0
ENDBLK
  5
157
330
155
100
AcDbEntity
  8
0
100
AcDbBlockEnd
  0
BLOCK
  5
167
330
166
100
AcDbEntity
  8
0
100
AcDbBlockBegin
  2
SW_NOTE_0
 70
     0
 10
0.0
 20
0.0
 30
0.0
  3
SW_NOTE_0
  1

  0
MTEXT
  5
169
330
166
100
AcDbEntity
  8
EBENE_1
 62
     0
100
AcDbMText
 10
6.7138020833
 20
4.7749217527
 30
0.0
 40
3.7041666667
 41
0.0
 71
     2
 72
     1
  1
(Inch)
  7
SLDTEXTSTYLE0
 73
     1
 44
1.0
  0
MTEXT
  5
16A
330
166
100
AcDbEntity
  8
EBENE_1
 62
     0
100
AcDbMText
 10
6.7309508326
 20
-1.1639672404
 30
0.0
 40
3.7041666667
 41
0.0
 71
     2
 72
     1
  1
mm
  7
SLDTEXTSTYLE0
 73
     1
 44
1.0
  0
ENDBLK
  5
168
330
166
100
AcDbEntity
  8
0
100
AcDbBlockEnd
  0
BLOCK
  5
172
330
171
100
AcDbEntity
  8
0
100
AcDbBlockBegin
  2
SW_NOTE_1
 70
     0
 10
0.0
 20
0.0
 30
0.0
  3
SW_NOTE_1
  1

  0
MTEXT
  5
174
330
171
100
AcDbEntity
  8
0
  6
Continuous
 62
     0
370
     0
100
AcDbMText
 10
19.893359375
 20
4.0927900738
 30
0.0
 40
3.175
 41
0.0
 71
     2
 72
     1
  1
ABP-Beyerle GmbH
  7
SLDTEXTSTYLE0
 73
     1
 44
1.0
  0
MTEXT
  5
175
330
171
100
AcDbEntity
  8
0
  6
Continuous
 62
     0
370
     0
100
AcDbMText
 10
20.6558884293
 20
-0.1405432084
 30
0.0
 40
3.175
 41
0.0
 71
     2
 72
     1
  1
Im Schollengarten 24b, 76646 Bruchsal
  7
SLDTEXTSTYLE0
 73
     1
 44
1.0
  0
MTEXT
  5
176
330
171
100
AcDbEntity
  8
0
  6
Continuous
 62
     0
370
     0
100
AcDbMText
 10
20.7863491923
 20
-4.3738764906
 30
0.0
 40
3.175
 41
0.0
 71
     2
 72
     1
  1
Tel. +49 (0)7251-9127-0, Fax. +49 (0)7251-9127-29
  7
SLDTEXTSTYLE0
 73
     1
 44
1.0
  0
MTEXT
  5
177
330
171
100
AcDbEntity
  8
0
  6
Continuous
 62
     0
370
     0
100
AcDbMText
 10
20.8392552227
 20
-8.6072097727
 30
0.0
 40
3.175
 41
0.0
 71
     2
 72
     1
  1
info@abp-beyerle.de, www.abp-beyerle.de
  7
SLDTEXTSTYLE0
 73
     1
 44
1.0
  0
ENDBLK
  5
173
330
171
100
AcDbEntity
  8
0
100
AcDbBlockEnd
  0
ENDSEC
  0
SECTION
  2
ENTITIES
  0
INSERT
  5
16D
330
1F
100
AcDbEntity
  8
EBENE_1
100
AcDbBlockReference
  2
Block1
 10
19.561342692
 20
-6.9223244521
 30
0.0
  0
MTEXT
  5
16F
330
1F
100
AcDbEntity
  8
0
  6
Continuous
 62
     7
370
     0
100
AcDbMText
 10
402.5
 20
14.7189135832
 30
0.0
 40
6.35
 41
0.0
 71
     1
 72
     1
  1
1:1
  7
SLDTEXTSTYLE1
 73
     1
 44
1.0
  0
MTEXT
  5
170
330
1F
100
AcDbEntity
  8
0
  6
Continuous
 62
     7
370
     0
100
AcDbMText
 10
168.4090458961
 20
14.7189131175
 30
0.0
 40
6.35
 41
0.0
 71
     1
 72
     1
  1
USU46-2540DB
  7
SLDTEXTSTYLE1
 73
     1
 44
1.0
  0
INSERT
  5
178
330
1F
100
AcDbEntity
  8
0
  6
Continuous
 62
     7
370
     0
100
AcDbBlockReference
  2
SW_NOTE_1
 10
35.4202146835
 20
20.1681939512
 30
0.0
  0
LINE
  5
179
330
1F
100
AcDbEntity
  8
0
  6
Continuous
 62
     7
370
    15
100
AcDbLine
 10
-583.8184329161
 20
2145.1837554001
 30
0.0
 11
-535.4309352526
 21
2145.1837554001
 31
0.0
  0
LINE
  5
17A
330
1F
100
AcDbEntity
  8
0
  6
Continuous
 62
     7
370
    15
100
AcDbLine
 10
-504.2059431264
 20
2145.1837554001
 30
0.0
 11
-498.8184394726
 21
2145.1837554001
 31
0.0
  0
LINE
  5
17B
330
1F
100
AcDbEntity
  8
0
  6
Continuous
 62
     7
370
    15
100
AcDbLine
 10
-468.8184373492
 20
2145.1837554001
 30
0.0
 11
201.1815337053
 21
2145.1837554001
 31
0.0
  0
LINE
  5
17C
330
1F
100
AcDbEntity
  8
0
  6
Continuous
 62
     7
370
    15
100
AcDbLine
 10
231.1815646997
 20
2145.1837554001
 30
0.0
 11
1864.5690707078
 21
2145.1837554001
 31
0.0
  0
LINE
  5
17D
330
1F
100
AcDbEntity
  8
0
  6
Continuous
 62
     7
370
    15
100
AcDbLine
 10
1895.794036757
 20
2145.1837554001
 30
0.0
 11
1956.1816481462
 21
2145.1837554001
 31
0.0
  0
LINE
  5
17E
330
1F
100
AcDbEntity
  8
0
  6
Continuous
 62
     7
370
    15
100
AcDbLine
 10
1956.1816481462
 20
2170.1837557726
 30
0.0
 11
1895.794036757
 21
2170.1837557726
 31
0.0
  0
LINE
  5
17F
330
1F
100
AcDbEntity
  8
0
  6
Continuous
 62
     7
370
    15
100
AcDbLine
 10
1864.5690707078
 20
2170.1837557726
 30
0.0
 11
231.1815646997
 21
2170.1837557726
 31
0.0
  0
LINE
  5
180
330
1F
100
AcDbEntity
  8
0
  6
Continuous
 62
     7
370
    15
100
AcDbLine
 10
201.1815337053
 20
2170.1837557726
 30
0.0
 11
-468.8184373492
 21
2170.1837557726
 31
0.0
  0
LINE
  5
181
330
1F
100
AcDbEntity
  8
0
  6
Continuous
 62
     7
370
    15
100
AcDbLine
 10
-498.8184394726
 20
2170.1837557726
 30
0.0
 11
-504.2059431264
 21
2170.1837557726
 31
0.0
  0
LINE
  5
182
330
1F
100
AcDbEntity
  8
0
  6
Continuous
 62
     7
370
    15
100
AcDbLine
 10
-535.4309352526
 20
2170.1837557726
 30
0.0
 11
-583.8184329161
 21
2170.1837557726
 31
0.0
  0
LINE
  5
183
330
1F
100
AcDbEntity
  8
0
  6
Continuous
 62
     7
370
    15
100
AcDbLine
 10
214.3844393602
 20
1989.2917977073
 30
0.0
 11
214.5715383401
 21
1989.1837493875
 31
0.0
  0
LINE
  5
184
330
1F
100
AcDbEntity
  8
0
  6
Continuous
 62
     7
370
    15
100
AcDbLine
 10
217.7915600648
 20
1989.1837493875
 30
0.0
 11
217.9787186494
 21
1989.2917977073
 31
0.0
  0
LINE
  5
185
330
1F
100
AcDbEntity
  8
0
  6
Continuous
 62
     7
370
    15
100
AcDbLine
 10
-485.6155785212
 20
1989.2917977073
 30
0.0
 11
-485.4284385631
 21
1989.1837493875
 31
0.0
  0
LINE
  5
186
330
1F
100
AcDbEntity
  8
0
  6
Continuous
 62
     7
370
    15
100
AcDbLine
 10
-482.2084373275
 20
1989.1837493875
 30
0.0
 11
-482.0212955067
 21
1989.2917977073
 31
0.0
  0
LINE
  5
187
330
1F
100
AcDbEntity
  8
0
  6
Continuous
 62
     7
370
    15
100
AcDbLine
 10
-583.8184329161
 20
2157.6837555863
 30
0.0
 11
-583.8184329161
 21
2145.1837554001
 31
0.0
  0
LINE
  5
188
330
1F
100
AcDbEntity
  8
0
  6
Continuous
 62
     7
370
    15
100
AcDbLine
 10
-583.8184329161
 20
2170.1837557726
 30
0.0
 11
-583.8184329161
 21
2157.6837555863
 31
0.0
  0
LINE
  5
189
330
1F
100
AcDbEntity
  8
0
  6
Continuous
 62
     7
370
    15
100
AcDbLine
 10
1956.1816481462
 20
2157.6837555863
 30
0.0
 11
1956.1816481462
 21
2145.1837554001
 31
0.0
  0
LINE
  5
18A
330
1F
100
AcDbEntity
  8
0
  6
Continuous
 62
     7
370
    15
100
AcDbLine
 10
1956.1816481462
 20
2170.1837557726
 30
0.0
 11
1956.1816481462
 21
2157.6837555863
 31
0.0
  0
SPLINE
  5
18B
330
1F
100
AcDbEntity
  8
0
  6
Continuous
 62
     7
370
    15
100
AcDbSpline
210
0.0
220
0.0
230
1.0
 70
    11
 71
     3
 72
    28
 73
    24
 74
     0
 42
0.000000001
 43
0.00000001
 40
0.0
 40
0.0
 40
0.0
 40
0.0
 40
0.0475550612754435
 40
0.0949665239629183
 40
0.1460706281736552
 40
0.203456934591932
 40
0.2467858589387729
 40
0.2901870357292258
 40
0.3330337443060202
 40
0.3834843092939651
 40
0.4410927239927546
 40
0.495049090755994
 40
0.5415909794625564
 40
0.5869406285103704
 40
0.6370256757631548
 40
0.6937096359569611
 40
0.7381341114717702
 40
0.78269537324345
 40
0.8249694938330233
 40
0.87373091774571
 40
0.9306923588187725
 40
0.9860187654251463
 40
1.0
 40
1.0
 40
1.0
 40
1.0
 10
678.6315468659678
 20
2157.683755586346
 30
0.0
 10
678.7015044031741
 20
2158.45655321512
 30
0.0
 10
678.8412082318584
 20
2159.999814911416
 30
0.0
 10
679.914152567252
 20
2162.08553963291
 30
0.0
 10
681.5685912647584
 20
2163.836754095865
 30
0.0
 10
683.6966080771407
 20
2164.950397770765
 30
0.0
 10
686.0220799178729
 20
2165.332838031584
 30
0.0
 10
688.1368419401186
 20
2165.074998828657
 30
0.0
 10
690.1319752501922
 20
2164.239098735895
 30
0.0
 10
691.9480955502418
 20
2162.767928498792
 30
0.0
 10
693.3184623447457
 20
2160.598173557115
 30
0.0
 10
693.8587621975736
 20
2158.048492886346
 30
0.0
 10
693.5699180144787
 20
2155.664532848325
 30
0.0
 10
692.6545225822058
 20
2153.586848217506
 30
0.0
 10
691.1138368417304
 20
2151.792153887838
 30
0.0
 10
689.0795180589471
 20
2150.573431081669
 30
0.0
 10
686.7707727473826
 20
2150.050631385933
 30
0.0
 10
684.6071858118765
 20
2150.199431271688
 30
0.0
 10
682.5770722210902
 20
2150.936503204933
 30
0.0
 10
680.7179043696341
 20
2152.284188916727
 30
0.0
 10
679.2421824235613
 20
2154.335829474996
 30
0.0
 10
678.6692724274967
 20
2156.336566413525
 30
0.0
 10
678.6378796435497
 20
2157.457610525905
 30
0.0
 10
678.6315468659678
 20
2157.683755586346
 30
0.0
  0
SPLINE
  5
18C
330
1F
100
AcDbEntity
  8
0
  6
Continuous
 62
     7
370
    15
100
AcDbSpline
210
0.0
220
0.0
230
1.0
 70
    11
 71
     3
 72
    28
 73
    24
 74
     0
 42
0.000000001
 43
0.00000001
 40
0.0
 40
0.0
 40
0.0
 40
0.0
 40
0.0475551014000674
 40
0.0949664653779247
 40
0.1460694281378822
 40
0.2034572576346647
 40
0.246785399225345
 40
0.2901854545242699
 40
0.333033768064826
 40
0.3834830910086409
 40
0.4410924166979472
 40
0.4950486948248331
 40
0.5415905681409909
 40
0.5869408459568478
 40
0.6370247351744656
 40
0.693708617206965
 40
0.7381340220793392
 40
0.7826954968430953
 40
0.824969614241527
 40
0.8737310948747223
 40
0.9306923265189877
 40
0.9860188323343756
 40
0.9999999999999999
 40
0.9999999999999999
 40
0.9999999999999999
 40
0.9999999999999999
 10
-461.3684378975949
 20
2157.683755586346
 30
0.0
 10
-461.2984696808729
 20
2158.456553747157
 30
0.0
 10
-461.1587447294953
 20
2159.999814251752
 30
0.0
 10
-460.085806562704
 20
2162.085512342779
 30
0.0
 10
-458.4314469924307
 20
2163.8368069412
 30
0.0
 10
-456.3033719565701
 20
2164.950369139912
 30
0.0
 10
-453.9779166027541
 20
2165.332848386438
 30
0.0
 10
-451.8631705125948
 20
2165.074969964985
 30
0.0
 10
-449.867994392413
 20
2164.239147975858
 30
0.0
 10
-448.0519567097037
 20
2162.767872600437
 30
0.0
 10
-446.6814511558451
 20
2160.598206342361
 30
0.0
 10
-446.1412009154913
 20
2158.048491150006
 30
0.0
 10
-446.4300181070902
 20
2155.664510495488
 30
0.0
 10
-447.3455548005161
 20
2153.586895703814
 30
0.0
 10
-448.8861037333362
 20
2151.792124413874
 30
0.0
 10
-450.920459418884
 20
2150.573424252072
 30
0.0
 10
-453.2292215109029
 20
2150.050634033747
 30
0.0
 10
-455.3928308722665
 20
2150.199428833324
 30
0.0
 10
-457.4229465413357
 20
2150.936505124379
 30
0.0
 10
-459.2821336676952
 20
2152.284182026764
 30
0.0
 10
-460.7577900658479
 20
2154.335840707335
 30
0.0
 10
-461.3308416072651
 20
2156.336559344439
 30
0.0
 10
-461.3621268476215
 20
2157.457610327542
 30
0.0
 10
-461.3684378975949
 20
2157.683755586346
 30
0.0
  0
SPLINE
  5
18D
330
1F
100
AcDbEntity
  8
0
  6
Continuous
 62
     7
370
    15
100
AcDbSpline
210
0.0
220
0.0
230
1.0
 70
    11
 71
     3
 72
    28
 73
    24
 74
     0
 42
0.000000001
 43
0.00000001
 40
0.0
 40
0.0
 40
0.0
 40
0.0
 40
0.0475549912339351
 40
0.0949663840914008
 40
0.146068805913667
 40
0.2034571266385077
 40
0.2467859871683094
 40
0.2901846699182358
 40
0.33303351596561
 40
0.3834821932836457
 40
0.4410917725563043
 40
0.4950480598498677
 40
0.5415898800071738
 40
0.5869404184984426
 40
0.6370238725443266
 40
0.6937077492511188
 40
0.7381321593353053
 40
0.7826958035901995
 40
0.8249698619163022
 40
0.8737312140106883
 40
0.9306925711880489
 40
0.9860188963068826
 40
1.0
 40
1.0
 40
1.0
 40
1.0
 10
1248.631599318055
 20
2157.683755586346
 30
0.0
 10
1248.701554992924
 20
2158.45655479894
 30
0.0
 10
1248.841255102556
 20
2159.999819658095
 30
0.0
 10
1249.914216182776
 20
2162.085497151626
 30
0.0
 10
1251.568530258312
 20
2163.836828241419
 30
0.0
 10
1253.696641137119
 20
2164.95036697744
 30
0.0
 10
1256.022094637844
 20
2165.33285077544
 30
0.0
 10
1258.136831661208
 20
2165.074954067491
 30
0.0
 10
1260.132007054277
 20
2164.239167719863
 30
0.0
 10
1261.948004252396
 20
2162.767849751192
 30
0.0
 10
1263.318550086098
 20
2160.598214813279
 30
0.0
 10
1263.85879347509
 20
2158.048493825656
 30
0.0
 10
1263.570012321402
 20
2155.664499585588
 30
0.0
 10
1262.65441043161
 20
2153.586914759567
 30
0.0
 10
1261.113915861741
 20
2151.792112017921
 30
0.0
 10
1259.079560274923
 20
2150.573435306686
 30
0.0
 10
1256.770789205627
 20
2150.050627488005
 30
0.0
 10
1254.607154841167
 20
2150.19941887251
 30
0.0
 10
1252.577008354569
 20
2150.936503045309
 30
0.0
 10
1250.717824165318
 20
2152.284188409893
 30
0.0
 10
1249.242174253312
 20
2154.335832082014
 30
0.0
 10
1248.669062022696
 20
2156.336558183935
 30
0.0
 10
1248.637887938379
 20
2157.457610329469
 30
0.0
 10
1248.631599318055
 20
2157.683755586346
 30
0.0
  0
SPLINE
  5
18E
330
1F
100
AcDbEntity
  8
0
  6
Continuous
 62
     7
370
    15
100
AcDbSpline
210
0.0
220
0.0
230
1.0
 70
    11
 71
     3
 72
    28
 73
    24
 74
     0
 42
0.000000001
 43
0.00000001
 40
0.0
 40
0.0
 40
0.0
 40
0.0
 40
0.0475549973268795
 40
0.094967443039181
 40
0.1460698714089035
 40
0.2034581994865761
 40
0.2467846563316215
 40
0.2901857747593503
 40
0.3330346262966981
 40
0.3834833100784295
 40
0.4410916473096419
 40
0.4950479415163108
 40
0.5415894789232901
 40
0.5869400232250598
 40
0.6370250031271406
 40
0.6937088870965086
 40
0.7381309329465164
 40
0.7826970310276472
 40
0.8249710947700791
 40
0.873732453111974
 40
0.9306924520186122
 40
0.9860187842260862
 40
1.0
 40
1.0
 40
1.0
 40
1.0
 10
1818.631532560853
 20
2157.683755586346
 30
0.0
 10
1818.701477800542
 20
2158.456559568976
 30
0.0
 10
1818.841158610958
 20
2159.999850964757
 30
0.0
 10
1819.914296814025
 20
2162.08546710363
 30
0.0
 10
1821.568569943192
 20
2163.836834441839
 30
0.0
 10
1823.696663648117
 20
2164.950346475432
 30
0.0
 10
1826.022102282664
 20
2165.332854055417
 30
0.0
 10
1828.136850658427
 20
2165.07496889175
 30
0.0
 10
1830.132053760521
 20
2164.239164329897
 30
0.0
 10
1831.948068108898
 20
2162.767879402507
 30
0.0
 10
1833.318473257309
 20
2160.598177053153
 30
0.0
 10
1833.858684055323
 20
2158.048506689866
 30
0.0
 10
1833.57009679947
 20
2155.664493656062
 30
0.0
 10
1832.654463443921
 20
2153.586878630079
 30
0.0
 10
1831.113840708375
 20
2151.792146977206
 30
0.0
 10
1829.079529413877
 20
2150.573454592753
 30
0.0
 10
1826.770766345295
 20
2150.050617054105
 30
0.0
 10
1824.607123905185
 20
2150.19940792248
 30
0.0
 10
1822.576944585393
 20
2150.936505662537
 30
0.0
 10
1820.717760570086
 20
2152.284159238233
 30
0.0
 10
1819.242191084334
 20
2154.335869066558
 30
0.0
 10
1818.669256666448
 20
2156.336565517148
 30
0.0
 10
1818.637865094035
 20
2157.457610375436
 30
0.0
 10
1818.631532560853
 20
2157.683755586346
 30
0.0
  0
SPLINE
  5
18F
330
1F
100
AcDbEntity
  8
0
  6
Continuous
 62
     7
370
    15
100
AcDbSpline
210
0.0
220
0.0
230
1.0
 70
    11
 71
     3
 72
    28
 73
    24
 74
     0
 42
0.000000001
 43
0.00000001
 40
0.0
 40
0.0
 40
0.0
 40
0.0
 40
0.047555184430211
 40
0.0949660609216385
 40
0.1460692938242965
 40
0.203457623004071
 40
0.2467852852986432
 40
0.290185189500772
 40
0.3330340418610013
 40
0.3834827266115637
 40
0.4410923143717537
 40
0.4950486096146147
 40
0.5415904366288562
 40
0.5869409818015506
 40
0.6370244432261536
 40
0.693708328284095
 40
0.7381339298798281
 40
0.7826951325845525
 40
0.8249691971388275
 40
0.8737315033772859
 40
0.9306921861530865
 40
0.9860188391561766
 40
0.9999999999999999
 40
0.9999999999999999
 40
0.9999999999999999
 40
0.9999999999999999
 10
108.6315540185252
 20
2157.683755586346
 30
0.0
 10
108.7015405525993
 20
2158.456551059558
 30
0.0
 10
108.8413012440619
 20
2159.999796929978
 30
0.0
 10
109.9141476789924
 20
2162.085532391747
 30
0.0
 10
111.5685561500652
 20
2163.836807091975
 30
0.0
 10
113.6966343923746
 20
2164.950360459746
 30
0.0
 10
116.0220881452352
 20
2165.332851647461
 30
0.0
 10
118.1368281645327
 20
2165.07496124682
 30
0.0
 10
120.1320213807215
 20
2164.239167799525
 30
0.0
 10
121.9480185507191
 20
2162.767849724101
 30
0.0
 10
123.3185643917684
 20
2160.598214823088
 30
0.0
 10
123.858807784097
 20
2158.048493814918
 30
0.0
 10
123.570026613102
 20
2155.66449961481
 30
0.0
 10
122.654424788111
 20
2153.586914649721
 30
0.0
 10
121.1139299402065
 20
2151.792112501705
 30
0.0
 10
119.0795595137266
 20
2150.573423881478
 30
0.0
 10
116.7708010068564
 20
2150.050635424409
 30
0.0
 10
114.6071891677777
 20
2150.19942715215
 30
0.0
 10
112.5770789185449
 20
2150.936519827017
 30
0.0
 10
110.7178334434925
 20
2152.284149732026
 30
0.0
 10
109.2422548139637
 20
2154.335864349098
 30
0.0
 10
108.6691435699768
 20
2156.336555485686
 30
0.0
 10
108.6378639240901
 20
2157.457610152739
 30
0.0
 10
108.6315540185252
 20
2157.683755586346
 30
0.0
  0
CIRCLE
  5
190
330
1F
100
AcDbEntity
  8
0
  6
Continuous
 62
     7
370
    15
100
AcDbCircle
 10
1826.1815623155
 20
2157.6837555863
 30
0.0
 40
6.450000000000167
  0
LINE
  5
191
330
1F
100
AcDbEntity
  8
0
  6
Continuous
 62
     7
370
    15
100
AcDbLine
 10
1827.6366022935
 20
2160.1770462826
 30
0.0
 11
1824.7498301378
 21
2160.1904088989
 31
0.0
  0
LINE
  5
192
330
1F
100
AcDbEntity
  8
0
  6
Continuous
 62
     7
370
    15
100
AcDbLine
 10
1829.068305861
 20
2157.6703929046
 30
0.0
 11
1827.6366022935
 21
2160.1770462826
 31
0.0
  0
LINE
  5
193
330
1F
100
AcDbEntity
  8
0
  6
Continuous
 62
     7
370
    15
100
AcDbLine
 10
1824.7498301378
 20
2160.1904088989
 30
0.0
 11
1823.2947615495
 21
2157.6971182681
 31
0.0
  0
LINE
  5
194
330
1F
100
AcDbEntity
  8
0
  6
Continuous
 62
     7
370
    15
100
AcDbLine
 10
1827.6132372728
 20
2155.1771022738
 30
0.0
 11
1829.068305861
 21
2157.6703929046
 31
0.0
  0
LINE
  5
195
330
1F
100
AcDbEntity
  8
0
  6
Continuous
 62
     7
370
    15
100
AcDbLine
 10
1824.7267035356
 20
2155.1904648901
 30
0.0
 11
1827.6132372728
 21
2155.1771022738
 31
0.0
  0
LINE
  5
196
330
1F
100
AcDbEntity
  8
0
  6
Continuous
 62
     7
370
    15
100
AcDbLine
 10
1823.2947615495
 20
2157.6971182681
 30
0.0
 11
1824.7267035356
 21
2155.1904648901
 31
0.0
  0
CIRCLE
  5
197
330
1F
100
AcDbEntity
  8
0
  6
Continuous
 62
     7
370
    15
100
AcDbCircle
 10
1826.1815623155
 20
2157.6837555863
 30
0.0
 40
7.45000000000028
  0
CIRCLE
  5
198
330
1F
100
AcDbEntity
  8
0
  6
Continuous
 62
     7
370
    15
100
AcDbCircle
 10
-453.8184376845
 20
2157.6837555863
 30
0.0
 40
6.450000000000021
  0
LINE
  5
199
330
1F
100
AcDbEntity
  8
0
  6
Continuous
 62
     7
370
    15
100
AcDbLine
 10
-456.7051567549
 20
2157.6971182681
 30
0.0
 11
-455.2733696012
 21
2155.1904648901
 31
0.0
  0
LINE
  5
19A
330
1F
100
AcDbEntity
  8
0
  6
Continuous
 62
     7
370
    15
100
AcDbLine
 10
-455.2733696012
 20
2155.1904648901
 30
0.0
 11
-452.3866505308
 21
2155.1771022738
 31
0.0
  0
LINE
  5
19B
330
1F
100
AcDbEntity
  8
0
  6
Continuous
 62
     7
370
    15
100
AcDbLine
 10
-452.3866505308
 20
2155.1771022738
 30
0.0
 11
-450.9317186141
 21
2157.6703929046
 31
0.0
  0
LINE
  5
19C
330
1F
100
AcDbEntity
  8
0
  6
Continuous
 62
     7
370
    15
100
AcDbLine
 10
-450.9317186141
 20
2157.6703929046
 30
0.0
 11
-452.3635057678
 21
2160.1770462826
 31
0.0
  0
LINE
  5
19D
330
1F
100
AcDbEntity
  8
0
  6
Continuous
 62
     7
370
    15
100
AcDbLine
 10
-452.3635057678
 20
2160.1770462826
 30
0.0
 11
-455.2502248382
 21
2160.1904088989
 31
0.0
  0
LINE
  5
19E
330
1F
100
AcDbEntity
  8
0
  6
Continuous
 62
     7
370
    15
100
AcDbLine
 10
-455.2502248382
 20
2160.1904088989
 30
0.0
 11
-456.7051567549
 21
2157.6971182681
 31
0.0
  0
CIRCLE
  5
19F
330
1F
100
AcDbEntity
  8
0
  6
Continuous
 62
     7
370
    15
100
AcDbCircle
 10
-453.8184376845
 20
2157.6837555863
 30
0.0
 40
7.450000000000182
  0
CIRCLE
  5
1A0
330
1F
100
AcDbEntity
  8
0
  6
Continuous
 62
     7
370
    15
100
AcDbCircle
 10
1256.1815623155
 20
2157.6837555863
 30
0.0
 40
6.449999999999971
  0
LINE
  5
1A1
330
1F
100
AcDbEntity
  8
0
  6
Continuous
 62
     7
370
    15
100
AcDbLine
 10
1257.6365498414
 20
2160.1770462826
 30
0.0
 11
1254.7497776857
 21
2160.1904088989
 31
0.0
  0
LINE
  5
1A2
330
1F
100
AcDbEntity
  8
0
  6
Continuous
 62
     7
370
    15
100
AcDbLine
 10
1254.7497776857
 20
2160.1904088989
 30
0.0
 11
1253.2948283067
 21
2157.6971182681
 31
0.0
  0
LINE
  5
1A3
330
1F
100
AcDbEntity
  8
0
  6
Continuous
 62
     7
370
    15
100
AcDbLine
 10
1257.61330403
 20
2155.1771022738
 30
0.0
 11
1259.0682534089
 21
2157.6703929046
 31
0.0
  0
LINE
  5
1A4
330
1F
100
AcDbEntity
  8
0
  6
Continuous
 62
     7
370
    15
100
AcDbLine
 10
1259.0682534089
 20
2157.6703929046
 30
0.0
 11
1257.6365498414
 21
2160.1770462826
 31
0.0
  0
LINE
  5
1A5
330
1F
100
AcDbEntity
  8
0
  6
Continuous
 62
     7
370
    15
100
AcDbLine
 10
1253.2948283067
 20
2157.6971182681
 30
0.0
 11
1254.7266510835
 21
2155.1904648901
 31
0.0
  0
LINE
  5
1A6
330
1F
100
AcDbEntity
  8
0
  6
Continuous
 62
     7
370
    15
100
AcDbLine
 10
1254.7266510835
 20
2155.1904648901
 30
0.0
 11
1257.61330403
 21
2155.1771022738
 31
0.0
  0
CIRCLE
  5
1A7
330
1F
100
AcDbEntity
  8
0
  6
Continuous
 62
     7
370
    15
100
AcDbCircle
 10
1256.1815623155
 20
2157.6837555863
 30
0.0
 40
7.450000000000085
  0
CIRCLE
  5
1A8
330
1F
100
AcDbEntity
  8
0
  6
Continuous
 62
     7
370
    15
100
AcDbCircle
 10
686.1815623155
 20
2157.6837555863
 30
0.0
 40
6.449999999999971
  0
CIRCLE
  5
1A9
330
1F
100
AcDbEntity
  8
0
  6
Continuous
 62
     7
370
    15
100
AcDbCircle
 10
686.1815623155
 20
2157.6837555863
 30
0.0
 40
7.450000000000182
  0
LINE
  5
1AA
330
1F
100
AcDbEntity
  8
0
  6
Continuous
 62
     7
370
    15
100
AcDbLine
 10
687.6133707872
 20
2155.1771022738
 30
0.0
 11
689.0683201661
 21
2157.6703929046
 31
0.0
  0
LINE
  5
1AB
330
1F
100
AcDbEntity
  8
0
  6
Continuous
 62
     7
370
    15
100
AcDbLine
 10
689.0683201661
 20
2157.6703929046
 30
0.0
 11
687.6364973893
 21
2160.1770462826
 31
0.0
  0
LINE
  5
1AC
330
1F
100
AcDbEntity
  8
0
  6
Continuous
 62
     7
370
    15
100
AcDbLine
 10
687.6364973893
 20
2160.1770462826
 30
0.0
 11
684.7497252336
 21
2160.1904088989
 31
0.0
  0
LINE
  5
1AD
330
1F
100
AcDbEntity
  8
0
  6
Continuous
 62
     7
370
    15
100
AcDbLine
 10
684.7265986314
 20
2155.1904648901
 30
0.0
 11
687.6133707872
 21
2155.1771022738
 31
0.0
  0
LINE
  5
1AE
330
1F
100
AcDbEntity
  8
0
  6
Continuous
 62
     7
370
    15
100
AcDbLine
 10
683.2948950639
 20
2157.6971182681
 30
0.0
 11
684.7265986314
 21
2155.1904648901
 31
0.0
  0
LINE
  5
1AF
330
1F
100
AcDbEntity
  8
0
  6
Continuous
 62
     7
370
    15
100
AcDbLine
 10
684.7497252336
 20
2160.1904088989
 30
0.0
 11
683.2948950639
 21
2157.6971182681
 31
0.0
  0
CIRCLE
  5
1B0
330
1F
100
AcDbEntity
  8
0
  6
Continuous
 62
     7
370
    15
100
AcDbCircle
 10
116.1815623155
 20
2157.6837555863
 30
0.0
 40
6.450000000000021
  0
LINE
  5
1B1
330
1F
100
AcDbEntity
  8
0
  6
Continuous
 62
     7
370
    15
100
AcDbLine
 10
117.6133779397
 20
2155.1771022738
 30
0.0
 11
119.0682677141
 21
2157.6703929046
 31
0.0
  0
LINE
  5
1B2
330
1F
100
AcDbEntity
  8
0
  6
Continuous
 62
     7
370
    15
100
AcDbLine
 10
117.6365045419
 20
2160.1770462826
 30
0.0
 11
114.7497919908
 21
2160.1904088989
 31
0.0
  0
LINE
  5
1B3
330
1F
100
AcDbEntity
  8
0
  6
Continuous
 62
     7
370
    15
100
AcDbLine
 10
114.726605784
 20
2155.1904648901
 30
0.0
 11
117.6133779397
 21
2155.1771022738
 31
0.0
  0
LINE
  5
1B4
330
1F
100
AcDbEntity
  8
0
  6
Continuous
 62
     7
370
    15
100
AcDbLine
 10
119.0682677141
 20
2157.6703929046
 30
0.0
 11
117.6365045419
 21
2160.1770462826
 31
0.0
  0
LINE
  5
1B5
330
1F
100
AcDbEntity
  8
0
  6
Continuous
 62
     7
370
    15
100
AcDbLine
 10
113.2948426118
 20
2157.6971182681
 30
0.0
 11
114.726605784
 21
2155.1904648901
 31
0.0
  0
LINE
  5
1B6
330
1F
100
AcDbEntity
  8
0
  6
Continuous
 62
     7
370
    15
100
AcDbLine
 10
114.7497919908
 20
2160.1904088989
 30
0.0
 11
113.2948426118
 21
2157.6971182681
 31
0.0
  0
CIRCLE
  5
1B7
330
1F
100
AcDbEntity
  8
0
  6
Continuous
 62
     7
370
    15
100
AcDbCircle
 10
116.1815623155
 20
2157.6837555863
 30
0.0
 40
7.45000000000017
  0
LINE
  5
1B8
330
1F
100
AcDbEntity
  8
0
  6
Continuous
 62
     7
370
    15
100
AcDbLine
 10
316.181543242
 20
65.1837841966
 30
0.0
 11
316.181543242
 21
2115.1837551393
 31
0.0
  0
LINE
  5
1B9
330
1F
100
AcDbEntity
  8
0
  6
Continuous
 62
     7
370
    15
100
AcDbLine
 10
316.181543242
 20
2115.1837551393
 30
0.0
 11
231.1815646997
 21
2115.1837551393
 31
0.0
  0
LINE
  5
1BA
330
1F
100
AcDbEntity
  8
0
  6
Continuous
 62
     7
370
    15
100
AcDbLine
 10
201.1815337053
 20
2115.1837551393
 30
0.0
 11
-468.8184373492
 21
2115.1837551393
 31
0.0
  0
LINE
  5
1BB
330
1F
100
AcDbEntity
  8
0
  6
Continuous
 62
     7
370
    15
100
AcDbLine
 10
-498.8184394726
 20
2115.1837551393
 30
0.0
 11
-583.8184329161
 21
2115.1837551393
 31
0.0
  0
LINE
  5
1BC
330
1F
100
AcDbEntity
  8
0
  6
Continuous
 62
     7
370
    15
100
AcDbLine
 10
-583.8184329161
 20
2115.1837551393
 30
0.0
 11
-583.8184329161
 21
65.1837841966
 31
0.0
  0
LINE
  5
1BD
330
1F
100
AcDbEntity
  8
0
  6
Continuous
 62
     7
370
    15
100
AcDbLine
 10
-583.8184329161
 20
65.1837841966
 30
0.0
 11
279.5180109849
 21
65.1837841966
 31
0.0
  0
LINE
  5
1BE
330
1F
100
AcDbEntity
  8
0
  6
Continuous
 62
     7
370
    15
100
AcDbLine
 10
314.8450878969
 20
65.1837841966
 30
0.0
 11
316.181543242
 21
65.1837841966
 31
0.0
  0
ARC
  5
1BF
330
1F
100
AcDbEntity
  8
0
  6
Continuous
 62
     7
370
    15
100
AcDbCircle
 10
-483.8184376845
 20
2196.1837555863
 30
0.0
 40
28.99999999999995
100
AcDbArc
 50
301.1473899215
 51
238.8526100785
  0
ARC
  5
1C0
330
1F
100
AcDbEntity
  8
0
  6
Continuous
 62
     7
370
    15
100
AcDbCircle
 10
216.1815623155
 20
2196.1837555863
 30
0.0
 40
28.99999999999999
100
AcDbArc
 50
301.1473899215
 51
238.8526100785
  0
LINE
  5
1C1
330
1F
100
AcDbEntity
  8
0
  6
Continuous
 62
     7
370
    15
100
AcDbLine
 10
217.7915600648
 20
1989.1837493875
 30
0.0
 11
214.5715383401
 21
1989.1837493875
 31
0.0
  0
LINE
  5
1C2
330
1F
100
AcDbEntity
  8
0
  6
Continuous
 62
     7
370
    15
100
AcDbLine
 10
-482.2084373275
 20
1989.1837493875
 30
0.0
 11
-485.4284385631
 21
1989.1837493875
 31
0.0
  0
CIRCLE
  5
1C3
330
1F
100
AcDbEntity
  8
0
  6
Continuous
 62
     7
370
    15
100
AcDbCircle
 10
-483.8184376845
 20
2060.1837555863
 30
0.0
 40
12.33393612946657
  0
CIRCLE
  5
1C4
330
1F
100
AcDbEntity
  8
0
  6
Continuous
 62
     7
370
    15
100
AcDbCircle
 10
-483.8184376845
 20
2060.1837555863
 30
0.0
 40
12.5
  0
CIRCLE
  5
1C5
330
1F
100
AcDbEntity
  8
0
  6
Continuous
 62
     7
370
    15
100
AcDbCircle
 10
-483.8184376845
 20
2005.1837555863
 30
0.0
 40
12.33393612946679
  0
CIRCLE
  5
1C6
330
1F
100
AcDbEntity
  8
0
  6
Continuous
 62
     7
370
    15
100
AcDbCircle
 10
-483.8184376845
 20
2005.1837555863
 30
0.0
 40
12.49999999999977
  0
CIRCLE
  5
1C7
330
1F
100
AcDbEntity
  8
0
  6
Continuous
 62
     7
370
    15
100
AcDbCircle
 10
216.1815623155
 20
2060.1837555863
 30
0.0
 40
12.33393612946657
  0
CIRCLE
  5
1C8
330
1F
100
AcDbEntity
  8
0
  6
Continuous
 62
     7
370
    15
100
AcDbCircle
 10
216.1815623155
 20
2060.1837555863
 30
0.0
 40
12.5
  0
CIRCLE
  5
1C9
330
1F
100
AcDbEntity
  8
0
  6
Continuous
 62
     7
370
    15
100
AcDbCircle
 10
216.1815623155
 20
2005.1837555863
 30
0.0
 40
12.33393612946679
  0
CIRCLE
  5
1CA
330
1F
100
AcDbEntity
  8
0
  6
Continuous
 62
     7
370
    15
100
AcDbCircle
 10
216.1815623155
 20
2005.1837555863
 30
0.0
 40
12.49999999999977
  0
CIRCLE
  5
1CB
330
1F
100
AcDbEntity
  8
0
  6
Continuous
 62
     7
370
    15
100
AcDbCircle
 10
216.1815623155
 20
2136.1837555863
 30
0.0
 40
12.33393612946702
  0
CIRCLE
  5
1CC
330
1F
100
AcDbEntity
  8
0
  6
Continuous
 62
     7
370
    15
100
AcDbCircle
 10
216.1815623155
 20
2136.1837555863
 30
0.0
 40
12.50000000000045
  0
CIRCLE
  5
1CD
330
1F
100
AcDbEntity
  8
0
  6
Continuous
 62
     7
370
    15
100
AcDbCircle
 10
-483.8184376845
 20
2136.1837555863
 30
0.0
 40
12.33393612946702
  0
CIRCLE
  5
1CE
330
1F
100
AcDbEntity
  8
0
  6
Continuous
 62
     7
370
    15
100
AcDbCircle
 10
-483.8184376845
 20
2136.1837555863
 30
0.0
 40
12.50000000000045
  0
CIRCLE
  5
1CF
330
1F
100
AcDbEntity
  8
0
  6
Continuous
 62
     7
370
    15
100
AcDbCircle
 10
-483.8184376845
 20
2196.1837555863
 30
0.0
 40
12.33393612946679
  0
CIRCLE
  5
1D0
330
1F
100
AcDbEntity
  8
0
  6
Continuous
 62
     7
370
    15
100
AcDbCircle
 10
-483.8184376845
 20
2196.1837555863
 30
0.0
 40
12.5
  0
CIRCLE
  5
1D1
330
1F
100
AcDbEntity
  8
0
  6
Continuous
 62
     7
370
    15
100
AcDbCircle
 10
216.1815623155
 20
2196.1837555863
 30
0.0
 40
12.33393612946676
  0
CIRCLE
  5
1D2
330
1F
100
AcDbEntity
  8
0
  6
Continuous
 62
     7
370
    15
100
AcDbCircle
 10
216.1815623155
 20
2196.1837555863
 30
0.0
 40
12.49999999999994
  0
ARC
  5
1D3
330
1F
100
AcDbEntity
  8
0
  6
Continuous
 62
     7
370
    15
100
AcDbCircle
 10
-483.8184376845
 20
2196.1837555863
 30
0.0
 40
14.80000000000007
100
AcDbArc
 50
0.0
 51
180.0
  0
LINE
  5
1D4
330
1F
100
AcDbEntity
  8
0
  6
Continuous
 62
     7
370
    15
100
AcDbLine
 10
-498.6184360871
 20
2196.1837553777
 30
0.0
 11
-498.8184394726
 21
2196.1837553777
 31
0.0
  0
ARC
  5
1D5
330
1F
100
AcDbEntity
  8
0
  6
Continuous
 62
     7
370
    15
100
AcDbCircle
 10
-483.8184376845
 20
2196.1837555863
 30
0.0
 40
15.00000000000006
100
AcDbArc
 50
0.0
 51
180.0
  0
LINE
  5
1D6
330
1F
100
AcDbEntity
  8
0
  6
Continuous
 62
     7
370
    15
100
AcDbLine
 10
-469.0184379408
 20
2196.1837553777
 30
0.0
 11
-468.8184373492
 21
2196.1837553777
 31
0.0
  0
LINE
  5
1D7
330
1F
100
AcDbEntity
  8
0
  6
Continuous
 62
     7
370
    15
100
AcDbLine
 10
-469.0184379408
 20
2004.1837499835
 30
0.0
 11
-469.0184379408
 21
2196.1837553777
 31
0.0
  0
ARC
  5
1D8
330
1F
100
AcDbEntity
  8
0
  6
Continuous
 62
     7
370
    15
100
AcDbCircle
 10
-483.8184376845
 20
2004.1837555863
 30
0.0
 40
14.80000000000007
100
AcDbArc
 50
180.0
 51
0.0
  0
LINE
  5
1D9
330
1F
100
AcDbEntity
  8
0
  6
Continuous
 62
     7
370
    15
100
AcDbLine
 10
-498.6184360871
 20
2196.1837553777
 30
0.0
 11
-498.6184360871
 21
2004.1837499835
 31
0.0
  0
LINE
  5
1DA
330
1F
100
AcDbEntity
  8
0
  6
Continuous
 62
     7
370
    15
100
AcDbLine
 10
-468.8184373492
 20
2196.1837553777
 30
0.0
 11
-468.8184373492
 21
2004.1837499835
 31
0.0
  0
LINE
  5
1DB
330
1F
100
AcDbEntity
  8
0
  6
Continuous
 62
     7
370
    15
100
AcDbLine
 10
-468.8184373492
 20
2004.1837499835
 30
0.0
 11
-469.0184379408
 21
2004.1837499835
 31
0.0
  0
LINE
  5
1DC
330
1F
100
AcDbEntity
  8
0
  6
Continuous
 62
     7
370
    15
100
AcDbLine
 10
-498.8184394726
 20
2004.1837499835
 30
0.0
 11
-498.8184394726
 21
2196.1837553777
 31
0.0
  0
LINE
  5
1DD
330
1F
100
AcDbEntity
  8
0
  6
Continuous
 62
     7
370
    15
100
AcDbLine
 10
-498.8184394726
 20
2004.1837499835
 30
0.0
 11
-498.6184360871
 21
2004.1837499835
 31
0.0
  0
ARC
  5
1DE
330
1F
100
AcDbEntity
  8
0
  6
Continuous
 62
     7
370
    15
100
AcDbCircle
 10
-483.8184376845
 20
2004.1837555863
 30
0.0
 40
15.00000000000006
100
AcDbArc
 50
180.0
 51
0.0
  0
ARC
  5
1DF
330
1F
100
AcDbEntity
  8
0
  6
Continuous
 62
     7
370
    15
100
AcDbCircle
 10
216.1815623155
 20
2196.1837555863
 30
0.0
 40
14.80000000000004
100
AcDbArc
 50
0.0
 51
180.0
  0
LINE
  5
1E0
330
1F
100
AcDbEntity
  8
0
  6
Continuous
 62
     7
370
    15
100
AcDbLine
 10
201.3815668931
 20
2196.1837553777
 30
0.0
 11
201.1815337053
 21
2196.1837553777
 31
0.0
  0
ARC
  5
1E1
330
1F
100
AcDbEntity
  8
0
  6
Continuous
 62
     7
370
    15
100
AcDbCircle
 10
216.1815623155
 20
2196.1837555863
 30
0.0
 40
15.0
100
AcDbArc
 50
0.0
 51
180.0
  0
LINE
  5
1E2
330
1F
100
AcDbEntity
  8
0
  6
Continuous
 62
     7
370
    15
100
AcDbLine
 10
230.9815911165
 20
2196.1837553777
 30
0.0
 11
231.1815646997
 21
2196.1837553777
 31
0.0
  0
LINE
  5
1E3
330
1F
100
AcDbEntity
  8
0
  6
Continuous
 62
     7
370
    15
100
AcDbLine
 10
230.9815911165
 20
2004.1837499835
 30
0.0
 11
230.9815911165
 21
2196.1837553777
 31
0.0
  0
ARC
  5
1E4
330
1F
100
AcDbEntity
  8
0
  6
Continuous
 62
     7
370
    15
100
AcDbCircle
 10
216.1815623155
 20
2004.1837555863
 30
0.0
 40
14.80000000000004
100
AcDbArc
 50
180.0
 51
0.0
  0
LINE
  5
1E5
330
1F
100
AcDbEntity
  8
0
  6
Continuous
 62
     7
370
    15
100
AcDbLine
 10
201.3815668931
 20
2196.1837553777
 30
0.0
 11
201.3815668931
 21
2004.1837499835
 31
0.0
  0
LINE
  5
1E6
330
1F
100
AcDbEntity
  8
0
  6
Continuous
 62
     7
370
    15
100
AcDbLine
 10
231.1815646997
 20
2196.1837553777
 30
0.0
 11
231.1815646997
 21
2004.1837499835
 31
0.0
  0
LINE
  5
1E7
330
1F
100
AcDbEntity
  8
0
  6
Continuous
 62
     7
370
    15
100
AcDbLine
 10
231.1815646997
 20
2004.1837499835
 30
0.0
 11
230.9815911165
 21
2004.1837499835
 31
0.0
  0
LINE
  5
1E8
330
1F
100
AcDbEntity
  8
0
  6
Continuous
 62
     7
370
    15
100
AcDbLine
 10
201.1815337053
 20
2004.1837499835
 30
0.0
 11
201.1815337053
 21
2196.1837553777
 31
0.0
  0
LINE
  5
1E9
330
1F
100
AcDbEntity
  8
0
  6
Continuous
 62
     7
370
    15
100
AcDbLine
 10
201.1815337053
 20
2004.1837499835
 30
0.0
 11
201.3815668931
 21
2004.1837499835
 31
0.0
  0
ARC
  5
1EA
330
1F
100
AcDbEntity
  8
0
  6
Continuous
 62
     7
370
    15
100
AcDbCircle
 10
216.1815623155
 20
2004.1837555863
 30
0.0
 40
15.0
100
AcDbArc
 50
180.0
 51
0.0
  0
LINE
  5
1EB
330
1F
100
AcDbEntity
  8
0
  6
Continuous
 62
     7
370
    15
100
AcDbLine
 10
315.6815794816
 20
57.1836487748
 30
0.0
 11
315.6815794816
 21
58.1838147142
 31
0.0
  0
LINE
  5
1EC
330
1F
100
AcDbEntity
  8
0
  6
Continuous
 62
     7
370
    15
100
AcDbLine
 10
316.181543242
 20
58.1838147142
 30
0.0
 11
315.6815794816
 21
58.1838147142
 31
0.0
  0
LINE
  5
1ED
330
1F
100
AcDbEntity
  8
0
  6
Continuous
 62
     7
370
    15
100
AcDbLine
 10
316.181543242
 20
58.1838147142
 30
0.0
 11
316.181543242
 21
57.1836487748
 31
0.0
  0
LINE
  5
1EE
330
1F
100
AcDbEntity
  8
0
  6
Continuous
 62
     7
370
    15
100
AcDbLine
 10
316.181543242
 20
57.1836487748
 30
0.0
 11
315.6815794816
 21
57.1836487748
 31
0.0
  0
LINE
  5
1EF
330
1F
100
AcDbEntity
  8
0
  6
Continuous
 62
     7
370
    15
100
AcDbLine
 10
278.6815790048
 20
58.1838147142
 30
0.0
 11
278.6815790048
 21
57.1836487748
 31
0.0
  0
ARC
  5
1F0
330
1F
100
AcDbEntity
  8
0
  6
Continuous
 62
     7
370
    15
100
AcDbCircle
 10
297.1815623155
 20
58.1837555863
 30
0.0
 40
18.5
100
AcDbArc
 50
0.0
 51
180.0
  0
LINE
  5
1F1
330
1F
100
AcDbEntity
  8
0
  6
Continuous
 62
     7
370
    15
100
AcDbLine
 10
278.6815790048
 20
57.1836487748
 30
0.0
 11
315.6815794816
 21
57.1836487748
 31
0.0
  0
ARC
  5
1F2
330
1F
100
AcDbEntity
  8
0
  6
Continuous
 62
     7
370
    15
100
AcDbCircle
 10
297.1815623155
 20
58.1837555863
 30
0.0
 40
19.00000000000006
100
AcDbArc
 50
0.0
 51
180.0
  0
LINE
  5
1F3
330
1F
100
AcDbEntity
  8
0
  6
Continuous
 62
     7
370
    15
100
AcDbLine
 10
278.1815556398
 20
58.1838147142
 30
0.0
 11
278.6815790048
 21
58.1838147142
 31
0.0
  0
LINE
  5
1F4
330
1F
100
AcDbEntity
  8
0
  6
Continuous
 62
     7
370
    15
100
AcDbLine
 10
278.1815556398
 20
57.1836487748
 30
0.0
 11
278.1815556398
 21
58.1838147142
 31
0.0
  0
LINE
  5
1F5
330
1F
100
AcDbEntity
  8
0
  6
Continuous
 62
     7
370
    15
100
AcDbLine
 10
278.6815790048
 20
57.1836487748
 30
0.0
 11
278.1815556398
 21
57.1836487748
 31
0.0
  0
CIRCLE
  5
1F6
330
1F
100
AcDbEntity
  8
0
  6
Continuous
 62
     7
370
    15
100
AcDbCircle
 10
-519.8184376845
 20
2157.6837555863
 30
0.0
 40
14.83208158365328
  0
SPLINE
  5
1F7
330
1F
100
AcDbEntity
  8
0
  6
Continuous
 62
     7
370
    15
100
AcDbSpline
210
0.0
220
0.0
230
1.0
 70
     8
 71
     3
 72
     9
 73
     5
 74
     0
 42
0.000000001
 43
0.00000001
 40
0.0
 40
0.0
 40
0.0
 40
0.0
 40
0.5000001512645639
 40
1.0
 40
1.0
 40
1.0
 40
1.0
 10
-522.7099555024823
 20
2156.484708738004
 30
0.0
 10
-522.6425513519534
 20
2157.002048212136
 30
0.0
 10
-522.5077430916793
 20
2158.03672684738
 30
0.0
 10
-522.3709826560525
 20
2159.071149260123
 30
0.0
 10
-522.3026024589261
 20
2159.588360310023
 30
0.0
  0
SPLINE
  5
1F8
330
1F
100
AcDbEntity
  8
0
  6
Continuous
 62
     7
370
    15
100
AcDbSpline
210
0.0
220
0.0
230
1.0
 70
     8
 71
     3
 72
     9
 73
     5
 74
     0
 42
0.000000001
 43
0.00000001
 40
0.0
 40
0.0
 40
0.0
 40
0.0
 40
0.499999654431701
 40
0.9999999999999999
 40
0.9999999999999999
 40
0.9999999999999999
 40
0.9999999999999999
 10
-520.2257903704366
 20
2154.580104014327
 30
0.0
 10
-520.6401179212496
 20
2154.897146216219
 30
0.0
 10
-521.46877359559
 20
2155.531231058243
 30
0.0
 10
-522.2962280095569
 20
2156.16688269831
 30
0.0
 10
-522.7099555024823
 20
2156.484708738004
 30
0.0
  0
SPLINE
  5
1F9
330
1F
100
AcDbEntity
  8
0
  6
Continuous
 62
     7
370
    15
100
AcDbSpline
210
0.0
220
0.0
230
1.0
 70
     8
 71
     3
 72
     9
 73
     5
 74
     0
 42
0.000000001
 43
0.00000001
 40
0.0
 40
0.0
 40
0.0
 40
0.0
 40
0.5000006406973072
 40
1.0
 40
1.0
 40
1.0
 40
1.0
 10
-517.3342721948346
 20
2155.779150862669
 30
0.0
 10
-517.8160034546821
 20
2155.578853559073
 30
0.0
 10
-518.779464739803
 20
2155.1782594652
 30
0.0
 10
-519.7436822387398
 20
2154.779488994291
 30
0.0
 10
-520.2257903704366
 20
2154.580104014327
 30
0.0
  0
SPLINE
  5
1FA
330
1F
100
AcDbEntity
  8
0
  6
Continuous
 62
     7
370
    15
100
AcDbSpline
210
0.0
220
0.0
230
1.0
 70
     8
 71
     3
 72
     9
 73
     5
 74
     0
 42
0.000000001
 43
0.00000001
 40
0.0
 40
0.0
 40
0.0
 40
0.0
 40
0.5000001512645639
 40
1.0
 40
1.0
 40
1.0
 40
1.0
 10
-516.9269191512784
 20
2158.882802434688
 30
0.0
 10
-516.9943233018073
 20
2158.365462960556
 30
0.0
 10
-517.1291315620816
 20
2157.330784325312
 30
0.0
 10
-517.2658919977082
 20
2156.296361912569
 30
0.0
 10
-517.3342721948346
 20
2155.779150862669
 30
0.0
  0
SPLINE
  5
1FB
330
1F
100
AcDbEntity
  8
0
  6
Continuous
 62
     7
370
    15
100
AcDbSpline
210
0.0
220
0.0
230
1.0
 70
     8
 71
     3
 72
     9
 73
     5
 74
     0
 42
0.000000001
 43
0.00000001
 40
0.0
 40
0.0
 40
0.0
 40
0.0
 40
0.499999654431701
 40
0.9999999999999999
 40
0.9999999999999999
 40
0.9999999999999999
 40
0.9999999999999999
 10
-519.4110842833242
 20
2160.787407158365
 30
0.0
 10
-518.9967567325111
 20
2160.470364956472
 30
0.0
 10
-518.1681010581707
 20
2159.836280114449
 30
0.0
 10
-517.3406466442038
 20
2159.200628474382
 30
0.0
 10
-516.9269191512784
 20
2158.882802434688
 30
0.0
  0
SPLINE
  5
1FC
330
1F
100
AcDbEntity
  8
0
  6
Continuous
 62
     7
370
    15
100
AcDbSpline
210
0.0
220
0.0
230
1.0
 70
     8
 71
     3
 72
     9
 73
     5
 74
     0
 42
0.000000001
 43
0.00000001
 40
0.0
 40
0.0
 40
0.0
 40
0.0
 40
0.5000006406973072
 40
1.0
 40
1.0
 40
1.0
 40
1.0
 10
-522.3026024589261
 20
2159.588360310023
 30
0.0
 10
-521.8208711990789
 20
2159.788657613619
 30
0.0
 10
-520.857409913958
 20
2160.189251707492
 30
0.0
 10
-519.8931924150212
 20
2160.588022178401
 30
0.0
 10
-519.4110842833242
 20
2160.787407158365
 30
0.0
  0
SPLINE
  5
1FD
330
1F
100
AcDbEntity
  8
0
  6
Continuous
 62
     7
370
    15
100
AcDbSpline
210
0.0
220
0.0
230
1.0
 70
     8
 71
     3
 72
     9
 73
     5
 74
     0
 42
0.000000001
 43
0.00000001
 40
0.0
 40
0.0
 40
0.0
 40
0.0
 40
0.5000000245314621
 40
1.0
 40
1.0
 40
1.0
 40
1.0
 10
-522.4850075731
 20
2156.577988377263
 30
0.0
 10
-522.1031901621429
 20
2156.285248922182
 30
0.0
 10
-521.3395553776948
 20
2155.699770040744
 30
0.0
 10
-520.5759204808483
 20
2155.114291305962
 30
0.0
 10
-520.1941030511579
 20
2154.821551952933
 30
0.0
  0
SPLINE
  5
1FE
330
1F
100
AcDbEntity
  8
0
  6
Continuous
 62
     7
370
    15
100
AcDbSpline
210
0.0
220
0.0
230
1.0
 70
     8
 71
     3
 72
    14
 73
    10
 74
     0
 42
0.000000001
 43
0.00000001
 40
0.0
 40
0.0
 40
0.0
 40
0.0
 40
0.1719827272416473
 40
0.343680870122018
 40
0.522833875927466
 40
0.7237771231985602
 40
0.9513954873161751
 40
0.9912701166290598
 40
1.0
 40
1.0
 40
1.0
 40
1.0
 10
-520.1941030511579
 20
2154.821551952933
 30
0.0
 10
-520.1943675354661
 20
2154.819515480659
 30
0.0
 10
-520.1948960664336
 20
2154.815445905913
 30
0.0
 10
-520.1990271159145
 20
2154.784075856825
 30
0.0
 10
-520.2051977745115
 20
2154.73694337395
 30
0.0
 10
-520.2136344442307
 20
2154.672820610405
 30
0.0
 10
-520.2207393067883
 20
2154.618512832708
 30
0.0
 10
-520.2249261889036
 20
2154.586698108911
 30
0.0
 10
-520.2256587879222
 20
2154.581108048216
 30
0.0
 10
-520.2257903704366
 20
2154.580104014327
 30
0.0
  0
SPLINE
  5
1FF
330
1F
100
AcDbEntity
  8
0
  6
Continuous
 62
     7
370
    15
100
AcDbSpline
210
0.0
220
0.0
230
1.0
 70
     8
 71
     3
 72
    14
 73
    10
 74
     0
 42
0.000000001
 43
0.00000001
 40
0.0
 40
0.0
 40
0.0
 40
0.0
 40
0.0087364738610077
 40
0.0485957927171123
 40
0.2762283905346083
 40
0.4771614249763552
 40
0.6563165083223637
 40
0.8280136873985818
 40
1.0
 40
1.0
 40
1.0
 40
1.0
 10
-522.7099555024823
 20
2156.484708738004
 30
0.0
 10
-522.7090192811772
 20
2156.485096597389
 30
0.0
 10
-522.70381164052
 20
2156.487254027785
 30
0.0
 10
-522.6741743013479
 20
2156.499557016803
 30
0.0
 10
-522.6235762658235
 20
2156.52052309552
 30
0.0
 10
-522.5638380213206
 20
2156.545302964956
 30
0.0
 10
-522.5199272550074
 20
2156.563509509364
 30
0.0
 10
-522.4907035691401
 20
2156.575629651169
 30
0.0
 10
-522.4869073030192
 20
2156.57720169439
 30
0.0
 10
-522.4850075731
 20
2156.577988377263
 30
0.0
  0
SPLINE
  5
200
330
1F
100
AcDbEntity
  8
0
  6
Continuous
 62
     7
370
    15
100
AcDbSpline
210
0.0
220
0.0
230
1.0
 70
    24
 71
     3
 72
     9
 73
     5
 74
     0
 42
0.000000001
 43
0.00000001
 40
0.0
 40
0.0
 40
0.0
 40
0.0
 40
0.5
 40
1.0
 40
1.0
 40
1.0
 40
1.0
 10
-517.5275253543576
 20
2155.927319162016
 30
0.0
 10
-517.464915642075
 20
2156.404353100918
 30
0.0
 10
-517.3396962175092
 20
2157.358420978722
 30
0.0
 10
-517.2144767929436
 20
2158.312488856526
 30
0.0
 10
-517.1518670806607
 20
2158.789522795429
 30
0.0
  0
SPLINE
  5
201
330
1F
100
AcDbEntity
  8
0
  6
Continuous
 62
     7
370
    15
100
AcDbSpline
210
0.0
220
0.0
230
1.0
 70
     8
 71
     3
 72
    14
 73
    10
 74
     0
 42
0.000000001
 43
0.00000001
 40
0.0
 40
0.0
 40
0.0
 40
0.0
 40
0.1719863126014181
 40
0.3436834916776362
 40
0.5228385750236446
 40
0.7237716094653915
 40
0.9514042072828877
 40
0.9912635261389923
 40
1.0
 40
1.0
 40
1.0
 40
1.0
 10
-517.1518670806607
 20
2158.789522795429
 30
0.0
 10
-517.1499673507418
 20
2158.790309478302
 30
0.0
 10
-517.1461710846206
 20
2158.791881521523
 30
0.0
 10
-517.1169473987536
 20
2158.804001663328
 30
0.0
 10
-517.0730366324403
 20
2158.822208207736
 30
0.0
 10
-517.0132983879372
 20
2158.846988077172
 30
0.0
 10
-516.9627003524131
 20
2158.867954155889
 30
0.0
 10
-516.9330630132409
 20
2158.880257144907
 30
0.0
 10
-516.9278553725836
 20
2158.882414575303
 30
0.0
 10
-516.9269191512784
 20
2158.882802434688
 30
0.0
  0
SPLINE
  5
202
330
1F
100
AcDbEntity
  8
0
  6
Continuous
 62
     7
370
    15
100
AcDbSpline
210
0.0
220
0.0
230
1.0
 70
     8
 71
     3
 72
    14
 73
    10
 74
     0
 42
0.000000001
 43
0.00000001
 40
0.0
 40
0.0
 40
0.0
 40
0.0
 40
0.1719809161532715
 40
0.3436795326388171
 40
0.5228292014610196
 40
0.7237803262375581
 40
0.9513903562099396
 40
0.9912634258847492
 40
0.9999999999999999
 40
0.9999999999999999
 40
0.9999999999999999
 40
0.9999999999999999
 10
-517.5275253543576
 20
2155.927319162016
 30
0.0
 10
-517.5258973946961
 20
2155.926069406128
 30
0.0
 10
-517.5226441476024
 20
2155.923571945775
 30
0.0
 10
-517.4975305682452
 20
2155.904321668746
 30
0.0
 10
-517.4598109005331
 20
2155.87539674453
 30
0.0
 10
-517.4084806560129
 20
2155.836048339067
 30
0.0
 10
-517.3650135412611
 20
2155.802726389744
 30
0.0
 10
-517.3395536857497
 20
2155.783194802514
 30
0.0
 10
-517.3350768187228
 20
2155.779766948288
 30
0.0
 10
-517.3342721948346
 20
2155.779150862669
 30
0.0
  0
SPLINE
  5
203
330
1F
100
AcDbEntity
  8
0
  6
Continuous
 62
     7
370
    15
100
AcDbSpline
210
0.0
220
0.0
230
1.0
 70
     8
 71
     3
 72
     9
 73
     5
 74
     0
 42
0.000000001
 43
0.00000001
 40
0.0
 40
0.0
 40
0.0
 40
0.0
 40
0.5000000245314621
 40
1.0
 40
1.0
 40
1.0
 40
1.0
 10
-517.1518670806607
 20
2158.789522795429
 30
0.0
 10
-517.533684491618
 20
2159.08226225051
 30
0.0
 10
-518.297319276066
 20
2159.667741131947
 30
0.0
 10
-519.0609541729127
 20
2160.25321986673
 30
0.0
 10
-519.4427716026029
 20
2160.545959219759
 30
0.0
  0
SPLINE
  5
204
330
1F
100
AcDbEntity
  8
0
  6
Continuous
 62
     7
370
    15
100
AcDbSpline
210
0.0
220
0.0
230
1.0
 70
     8
 71
     3
 72
    14
 73
    10
 74
     0
 42
0.000000001
 43
0.00000001
 40
0.0
 40
0.0
 40
0.0
 40
0.0
 40
0.0087298812178025
 40
0.0486045006960119
 40
0.2762255571700458
 40
0.4771662530242377
 40
0.6563192146434033
 40
0.8280173151761583
 40
1.0
 40
1.0
 40
1.0
 40
1.0
 10
-519.4110842833242
 20
2160.787407158365
 30
0.0
 10
-519.4112158670943
 20
2160.786403124628
 30
0.0
 10
-519.4119484731037
 20
2160.780813064783
 30
0.0
 10
-519.4161347730137
 20
2160.748997948589
 30
0.0
 10
-519.423253680108
 20
2160.694691845322
 30
0.0
 10
-519.4316739058024
 20
2160.630567238525
 30
0.0
 10
-519.437848263656
 20
2160.583435399662
 30
0.0
 10
-519.441978408754
 20
2160.552065246162
 30
0.0
 10
-519.4425070587374
 20
2160.547995685158
 30
0.0
 10
-519.4427716026029
 20
2160.545959219759
 30
0.0
  0
SPLINE
  5
205
330
1F
100
AcDbEntity
  8
0
  6
Continuous
 62
     7
370
    15
100
AcDbSpline
210
0.0
220
0.0
230
1.0
 70
    24
 71
     3
 72
     9
 73
     5
 74
     0
 42
0.000000001
 43
0.00000001
 40
0.0
 40
0.0
 40
0.0
 40
0.0
 40
0.5
 40
1.0
 40
1.0
 40
1.0
 40
1.0
 10
-519.4427716026029
 20
2160.545959219759
 30
0.0
 10
-519.8872012187363
 20
2160.361664684911
 30
0.0
 10
-520.776060451003
 20
2159.993075615217
 30
0.0
 10
-521.6649196832699
 20
2159.624486545523
 30
0.0
 10
-522.1093492994031
 20
2159.440192010676
 30
0.0
  0
SPLINE
  5
206
330
1F
100
AcDbEntity
  8
0
  6
Continuous
 62
     7
370
    15
100
AcDbSpline
210
0.0
220
0.0
230
1.0
 70
     8
 71
     3
 72
    14
 73
    10
 74
     0
 42
0.000000001
 43
0.00000001
 40
0.0
 40
0.0
 40
0.0
 40
0.0
 40
0.0087365741152506
 40
0.0486096437900602
 40
0.2762196737624417
 40
0.4771707985389801
 40
0.6563204673611827
 40
0.8280190838467284
 40
0.9999999999999999
 40
0.9999999999999999
 40
0.9999999999999999
 40
0.9999999999999999
 10
-522.3026024589261
 20
2159.588360310023
 30
0.0
 10
-522.3017978350382
 20
2159.587744224404
 30
0.0
 10
-522.2973209680113
 20
2159.584316370178
 30
0.0
 10
-522.2718611124997
 20
2159.564784782948
 30
0.0
 10
-522.2283939977481
 20
2159.531462833625
 30
0.0
 10
-522.1770637532279
 20
2159.492114428162
 30
0.0
 10
-522.1393440855157
 20
2159.463189503947
 30
0.0
 10
-522.1142305061586
 20
2159.443939226917
 30
0.0
 10
-522.1109772590648
 20
2159.441441766564
 30
0.0
 10
-522.1093492994031
 20
2159.440192010676
 30
0.0
  0
SPLINE
  5
207
330
1F
100
AcDbEntity
  8
0
  6
Continuous
 62
     7
370
    15
100
AcDbSpline
210
0.0
220
0.0
230
1.0
 70
    24
 71
     3
 72
     9
 73
     5
 74
     0
 42
0.000000001
 43
0.00000001
 40
0.0
 40
0.0
 40
0.0
 40
0.0
 40
0.5
 40
1.0
 40
1.0
 40
1.0
 40
1.0
 10
-522.1093492994031
 20
2159.440192010676
 30
0.0
 10
-522.171959011686
 20
2158.963158071773
 30
0.0
 10
-522.2971784362516
 20
2158.009090193969
 30
0.0
 10
-522.4223978608173
 20
2157.055022316165
 30
0.0
 10
-522.4850075731
 20
2156.577988377263
 30
0.0
  0
SPLINE
  5
208
330
1F
100
AcDbEntity
  8
0
  6
Continuous
 62
     7
370
    15
100
AcDbSpline
210
0.0
220
0.0
230
1.0
 70
    24
 71
     3
 72
     9
 73
     5
 74
     0
 42
0.000000001
 43
0.00000001
 40
0.0
 40
0.0
 40
0.0
 40
0.0
 40
0.5
 40
1.0
 40
1.0
 40
1.0
 40
1.0
 10
-520.1941030511579
 20
2154.821551952933
 30
0.0
 10
-519.7496734350246
 20
2155.00584648778
 30
0.0
 10
-518.8608142027578
 20
2155.374435557474
 30
0.0
 10
-517.9719549704911
 20
2155.743024627169
 30
0.0
 10
-517.5275253543576
 20
2155.927319162016
 30
0.0
  0
CIRCLE
  5
209
330
1F
100
AcDbEntity
  8
0
  6
Continuous
 62
     7
370
    15
100
AcDbCircle
 10
-519.8184376845
 20
2157.6837555863
 30
0.0
 40
15.00000000000001
  0
SPLINE
  5
20A
330
1F
100
AcDbEntity
  8
0
  6
Continuous
 62
     7
370
    15
100
AcDbSpline
210
0.0
220
0.0
230
1.0
 70
     8
 71
     3
 72
     9
 73
     5
 74
     0
 42
0.000000001
 43
0.00000001
 40
0.0
 40
0.0
 40
0.0
 40
0.0
 40
0.5000327883870158
 40
1.0
 40
1.0
 40
1.0
 40
1.0
 10
1877.514961134461
 20
2156.577988377263
 30
0.0
 10
1877.896835574998
 20
2156.28525851471
 30
0.0
 10
1878.660534375167
 20
2155.699837179646
 30
0.0
 10
1879.424144990795
 20
2155.114300895977
 30
0.0
 10
1879.805925261049
 20
2154.821551952933
 30
0.0
  0
SPLINE
  5
20B
330
1F
100
AcDbEntity
  8
0
  6
Continuous
 62
     7
370
    15
100
AcDbSpline
210
0.0
220
0.0
230
1.0
 70
     8
 71
     3
 72
    14
 73
    10
 74
     0
 42
0.000000001
 43
0.00000001
 40
0.0
 40
0.0
 40
0.0
 40
0.0
 40
0.1719913323947119
 40
0.3436948665455865
 40
0.5228567687185297
 40
0.7237707935372594
 40
0.9514119812913736
 40
0.9912363718255217
 40
1.0
 40
1.0
 40
1.0
 40
1.0
 10
1879.805925261048
 20
2154.821551952933
 30
0.0
 10
1879.805622330301
 20
2154.81951578308
 30
0.0
 10
1879.805016975708
 20
2154.815446850557
 30
0.0
 10
1879.800926642859
 20
2154.784072639677
 30
0.0
 10
1879.794607609783
 20
2154.736958283507
 30
0.0
 10
1879.786661214075
 20
2154.672776604899
 30
0.0
 10
1879.778560966778
 20
2154.618607530416
 30
0.0
 10
1879.775278721723
 20
2154.586671462901
 30
0.0
 10
1879.774378042047
 20
2154.581107554426
 30
0.0
 10
1879.774215590028
 20
2154.580104014327
 30
0.0
  0
SPLINE
  5
20C
330
1F
100
AcDbEntity
  8
0
  6
Continuous
 62
     7
370
    15
100
AcDbSpline
210
0.0
220
0.0
230
1.0
 70
     8
 71
     3
 72
     9
 73
     5
 74
     0
 42
0.000000001
 43
0.00000001
 40
0.0
 40
0.0
 40
0.0
 40
0.0
 40
0.4999987052023287
 40
1.0
 40
1.0
 40
1.0
 40
1.0
 10
1879.774215590028
 20
2154.580104014327
 30
0.0
 10
1879.359903168648
 20
2154.897146518032
 30
0.0
 10
1878.531276180077
 20
2155.531233167467
 30
0.0
 10
1877.703847717172
 20
2156.166882999133
 30
0.0
 10
1877.290132414368
 20
2156.484708738004
 30
0.0
  0
SPLINE
  5
20D
330
1F
100
AcDbEntity
  8
0
  6
Continuous
 62
     7
370
    15
100
AcDbSpline
210
0.0
220
0.0
230
1.0
 70
     8
 71
     3
 72
    14
 73
    10
 74
     0
 42
0.000000001
 43
0.00000001
 40
0.0
 40
0.0
 40
0.0
 40
0.0
 40
0.0082485721717709
 40
0.0482376596934343
 40
0.2760128244547227
 40
0.4769850212468583
 40
0.6562197416803376
 40
0.8279751814682297
 40
0.9999999999999999
 40
0.9999999999999999
 40
0.9999999999999999
 40
0.9999999999999999
 10
1877.290132414368
 20
2156.484708738004
 30
0.0
 10
1877.291005665524
 20
2156.48509863745
 30
0.0
 10
1877.296112439301
 20
2156.487378769867
 30
0.0
 10
1877.325890953997
 20
2156.499272102554
 30
0.0
 10
1877.376349171764
 20
2156.520616491272
 30
0.0
 10
1877.436141559181
 20
2156.545284443282
 30
0.0
 10
1877.480051936239
 20
2156.563513462858
 30
0.0
 10
1877.509294546343
 20
2156.575628089359
 30
0.0
 10
1877.513071285298
 20
2156.577201203742
 30
0.0
 10
1877.514961134461
 20
2156.577988377263
 30
0.0
  0
CIRCLE
  5
20E
330
1F
100
AcDbEntity
  8
0
  6
Continuous
 62
     7
370
    15
100
AcDbCircle
 10
1880.1815623155
 20
2157.6837555863
 30
0.0
 40
14.83208158365328
  0
SPLINE
  5
20F
330
1F
100
AcDbEntity
  8
0
  6
Continuous
 62
     7
370
    15
100
AcDbSpline
210
0.0
220
0.0
230
1.0
 70
     8
 71
     3
 72
     9
 73
     5
 74
     0
 42
0.000000001
 43
0.00000001
 40
0.0
 40
0.0
 40
0.0
 40
0.0
 40
0.5000010932968474
 40
1.0
 40
1.0
 40
1.0
 40
1.0
 10
1877.290132414368
 20
2156.484708738004
 30
0.0
 10
1877.357525324497
 20
2157.002047724925
 30
0.0
 10
1877.492310850034
 20
2158.03672343635
 30
0.0
 10
1877.629004614625
 20
2159.071148772755
 30
0.0
 10
1877.697351347474
 20
2159.588360310023
 30
0.0
  0
SPLINE
  5
210
330
1F
100
AcDbEntity
  8
0
  6
Continuous
 62
     7
370
    15
100
AcDbSpline
210
0.0
220
0.0
230
1.0
 70
     8
 71
     3
 72
     9
 73
     5
 74
     0
 42
0.000000001
 43
0.00000001
 40
0.0
 40
0.0
 40
0.0
 40
0.0
 40
0.4999709664411436
 40
1.0
 40
1.0
 40
1.0
 40
1.0
 10
1882.665756117371
 20
2155.779150862669
 30
0.0
 10
1882.18405711517
 20
2155.578847647661
 30
0.0
 10
1881.220603165774
 20
2155.178217954235
 30
0.0
 10
1880.256363445483
 20
2154.779483045425
 30
0.0
 10
1879.774215590028
 20
2154.580104014327
 30
0.0
  0
SPLINE
  5
211
330
1F
100
AcDbEntity
  8
0
  6
Continuous
 62
     7
370
    15
100
AcDbSpline
210
0.0
220
0.0
230
1.0
 70
     8
 71
     3
 72
     9
 73
     5
 74
     0
 42
0.000000001
 43
0.00000001
 40
0.0
 40
0.0
 40
0.0
 40
0.0
 40
0.5000010932968474
 40
1.0
 40
1.0
 40
1.0
 40
1.0
 10
1883.072975050477
 20
2158.882802434688
 30
0.0
 10
1883.005582140348
 20
2158.365463447767
 30
0.0
 10
1882.870796614812
 20
2157.330787736342
 30
0.0
 10
1882.73410285022
 20
2156.296362399937
 30
0.0
 10
1882.665756117371
 20
2155.779150862669
 30
0.0
  0
SPLINE
  5
212
330
1F
100
AcDbEntity
  8
0
  6
Continuous
 62
     7
370
    15
100
AcDbSpline
210
0.0
220
0.0
230
1.0
 70
     8
 71
     3
 72
     9
 73
     5
 74
     0
 42
0.000000001
 43
0.00000001
 40
0.0
 40
0.0
 40
0.0
 40
0.0
 40
0.4999987052023287
 40
1.0
 40
1.0
 40
1.0
 40
1.0
 10
1880.588891874818
 20
2160.787407158365
 30
0.0
 10
1881.003204296199
 20
2160.47036465466
 30
0.0
 10
1881.831831284768
 20
2159.836278005224
 30
0.0
 10
1882.659259747672
 20
2159.200628173559
 30
0.0
 10
1883.072975050477
 20
2158.882802434688
 30
0.0
  0
SPLINE
  5
213
330
1F
100
AcDbEntity
  8
0
  6
Continuous
 62
     7
370
    15
100
AcDbSpline
210
0.0
220
0.0
230
1.0
 70
     8
 71
     3
 72
     9
 73
     5
 74
     0
 42
0.000000001
 43
0.00000001
 40
0.0
 40
0.0
 40
0.0
 40
0.0
 40
0.5000413033677874
 40
0.9999999999999999
 40
0.9999999999999999
 40
0.9999999999999999
 40
0.9999999999999999
 10
1877.697351347474
 20
2159.588360310023
 30
0.0
 10
1878.179135644493
 20
2159.788649510922
 30
0.0
 10
1879.14262464785
 20
2160.189194824978
 30
0.0
 10
1880.106829349096
 20
2160.588014028954
 30
0.0
 10
1880.588891874818
 20
2160.787407158365
 30
0.0
  0
SPLINE
  5
214
330
1F
100
AcDbEntity
  8
0
  6
Continuous
 62
     7
370
    15
100
AcDbSpline
210
0.0
220
0.0
230
1.0
 70
    24
 71
     3
 72
     9
 73
     5
 74
     0
 42
0.000000001
 43
0.00000001
 40
0.0
 40
0.0
 40
0.0
 40
0.0
 40
0.5
 40
1.0
 40
1.0
 40
1.0
 40
1.0
 10
1882.47239864972
 20
2155.927319162016
 30
0.0
 10
1882.535023263164
 20
2156.404353100918
 30
0.0
 10
1882.660272490052
 20
2157.358420978722
 30
0.0
 10
1882.78552171694
 20
2158.312488856526
 30
0.0
 10
1882.848146330384
 20
2158.789522795429
 30
0.0
  0
SPLINE
  5
215
330
1F
100
AcDbEntity
  8
0
  6
Continuous
 62
     7
370
    15
100
AcDbSpline
210
0.0
220
0.0
230
1.0
 70
     8
 71
     3
 72
    14
 73
    10
 74
     0
 42
0.000000001
 43
0.00000001
 40
0.0
 40
0.0
 40
0.0
 40
0.0
 40
0.1720248185317702
 40
0.3437802583196624
 40
0.5230149787531416
 40
0.7239871755452773
 40
0.9517623403065657
 40
0.991751427828229
 40
0.9999999999999999
 40
0.9999999999999999
 40
0.9999999999999999
 40
0.9999999999999999
 10
1882.848146330384
 20
2158.789522795429
 30
0.0
 10
1882.850036179547
 20
2158.790309968949
 30
0.0
 10
1882.853812918501
 20
2158.791883083333
 30
0.0
 10
1882.883055528608
 20
2158.803997709834
 30
0.0
 10
1882.926965905663
 20
2158.82222672941
 30
0.0
 10
1882.986758293085
 20
2158.84689468142
 30
0.0
 10
1883.037216510842
 20
2158.868239070138
 30
0.0
 10
1883.066995025546
 20
2158.880132402825
 30
0.0
 10
1883.072101799321
 20
2158.882412535242
 30
0.0
 10
1883.072975050477
 20
2158.882802434688
 30
0.0
  0
SPLINE
  5
216
330
1F
100
AcDbEntity
  8
0
  6
Continuous
 62
     7
370
    15
100
AcDbSpline
210
0.0
220
0.0
230
1.0
 70
     8
 71
     3
 72
    14
 73
    10
 74
     0
 42
0.000000001
 43
0.00000001
 40
0.0
 40
0.0
 40
0.0
 40
0.0
 40
0.1720333121745828
 40
0.3437117739231624
 40
0.5228576529505928
 40
0.7234692244976253
 40
0.9515944999300961
 40
0.9913312174587345
 40
0.9999999999999999
 40
0.9999999999999999
 40
0.9999999999999999
 40
0.9999999999999999
 10
1882.47239864972
 20
2155.927319162016
 30
0.0
 10
1882.474087704323
 20
2155.926070891494
 30
0.0
 10
1882.477462329543
 20
2155.923576925236
 30
0.0
 10
1882.502497702567
 20
2155.90431217574
 30
0.0
 10
1882.540255150205
 20
2155.875447810851
 30
0.0
 10
1882.591402286085
 20
2155.835911382121
 30
0.0
 10
1882.63507026957
 20
2155.802806277649
 30
0.0
 10
1882.660525067378
 20
2155.783208528075
 30
0.0
 10
1882.664961594291
 20
2155.779767165098
 30
0.0
 10
1882.665756117372
 20
2155.779150862669
 30
0.0
  0
SPLINE
  5
217
330
1F
100
AcDbEntity
  8
0
  6
Continuous
 62
     7
370
    15
100
AcDbSpline
210
0.0
220
0.0
230
1.0
 70
     8
 71
     3
 72
     9
 73
     5
 74
     0
 42
0.000000001
 43
0.00000001
 40
0.0
 40
0.0
 40
0.0
 40
0.0
 40
0.4999672606743012
 40
1.0
 40
1.0
 40
1.0
 40
1.0
 10
1882.848146330384
 20
2158.789522795429
 30
0.0
 10
1882.466366078863
 20
2159.082271840524
 30
0.0
 10
1881.702755575635
 20
2159.667808270852
 30
0.0
 10
1880.939056663068
 20
2160.25322945926
 30
0.0
 10
1880.557182203797
 20
2160.545959219759
 30
0.0
  0
SPLINE
  5
218
330
1F
100
AcDbEntity
  8
0
  6
Continuous
 62
     7
370
    15
100
AcDbSpline
210
0.0
220
0.0
230
1.0
 70
     8
 71
     3
 72
    14
 73
    10
 74
     0
 42
0.000000001
 43
0.00000001
 40
0.0
 40
0.0
 40
0.0
 40
0.0
 40
0.0087636281744783
 40
0.0485880187086264
 40
0.2762292064627408
 40
0.4771432312814703
 40
0.6563051334544134
 40
0.8280086676052881
 40
1.0
 40
1.0
 40
1.0
 40
1.0
 10
1880.588891874818
 20
2160.787407158365
 30
0.0
 10
1880.588729422798
 20
2160.786403618266
 30
0.0
 10
1880.587828743122
 20
2160.780839709791
 30
0.0
 10
1880.584546498068
 20
2160.748903642276
 30
0.0
 10
1880.57644625077
 20
2160.694734567793
 30
0.0
 10
1880.568499855062
 20
2160.630552889185
 30
0.0
 10
1880.562180821987
 20
2160.583438533015
 30
0.0
 10
1880.558090489137
 20
2160.552064322135
 30
0.0
 10
1880.557485134545
 20
2160.547995389612
 30
0.0
 10
1880.557182203797
 20
2160.545959219759
 30
0.0
  0
SPLINE
  5
219
330
1F
100
AcDbEntity
  8
0
  6
Continuous
 62
     7
370
    15
100
AcDbSpline
210
0.0
220
0.0
230
1.0
 70
    24
 71
     3
 72
     9
 73
     5
 74
     0
 42
0.000000001
 43
0.00000001
 40
0.0
 40
0.0
 40
0.0
 40
0.0
 40
0.5
 40
1.0
 40
1.0
 40
1.0
 40
1.0
 10
1880.557182203797
 20
2160.545959219759
 30
0.0
 10
1880.112769972352
 20
2160.361664684911
 30
0.0
 10
1879.223945509461
 20
2159.993075615217
 30
0.0
 10
1878.335121046571
 20
2159.624486545523
 30
0.0
 10
1877.890708815125
 20
2159.440192010676
 30
0.0
  0
SPLINE
  5
21A
330
1F
100
AcDbEntity
  8
0
  6
Continuous
 62
     7
370
    15
100
AcDbSpline
210
0.0
220
0.0
230
1.0
 70
     8
 71
     3
 72
    14
 73
    10
 74
     0
 42
0.000000001
 43
0.00000001
 40
0.0
 40
0.0
 40
0.0
 40
0.0
 40
0.0086687233343285
 40
0.0489488199170822
 40
0.2765357167264172
 40
0.4771459181160374
 40
0.6562905735946358
 40
0.8279678627961131
 40
1.0
 40
1.0
 40
1.0
 40
1.0
 10
1877.697351347474
 20
2159.588360310023
 30
0.0
 10
1877.698145230024
 20
2159.587743167978
 30
0.0
 10
1877.702627967849
 20
2159.584258413228
 30
0.0
 10
1877.728410328568
 20
2159.565087809301
 30
0.0
 10
1877.771633629895
 20
2159.531413004904
 30
0.0
 10
1877.82287841802
 20
2159.492097327223
 30
0.0
 10
1877.86060344597
 20
2159.463190778252
 30
0.0
 10
1877.885646690017
 20
2159.443936270431
 30
0.0
 10
1877.889020279117
 20
2159.441440955988
 30
0.0
 10
1877.890708815125
 20
2159.440192010676
 30
0.0
  0
SPLINE
  5
21B
330
1F
100
AcDbEntity
  8
0
  6
Continuous
 62
     7
370
    15
100
AcDbSpline
210
0.0
220
0.0
230
1.0
 70
    24
 71
     3
 72
     9
 73
     5
 74
     0
 42
0.000000001
 43
0.00000001
 40
0.0
 40
0.0
 40
0.0
 40
0.0
 40
0.5
 40
1.0
 40
1.0
 40
1.0
 40
1.0
 10
1877.890708815125
 20
2159.440192010676
 30
0.0
 10
1877.828084201681
 20
2158.963158071773
 30
0.0
 10
1877.702834974793
 20
2158.009090193969
 30
0.0
 10
1877.577585747905
 20
2157.055022316165
 30
0.0
 10
1877.514961134461
 20
2156.577988377263
 30
0.0
  0
SPLINE
  5
21C
330
1F
100
AcDbEntity
  8
0
  6
Continuous
 62
     7
370
    15
100
AcDbSpline
210
0.0
220
0.0
230
1.0
 70
    24
 71
     3
 72
     9
 73
     5
 74
     0
 42
0.000000001
 43
0.00000001
 40
0.0
 40
0.0
 40
0.0
 40
0.0
 40
0.5
 40
1.0
 40
1.0
 40
1.0
 40
1.0
 10
1879.805925261048
 20
2154.821551952933
 30
0.0
 10
1880.250337492493
 20
2155.00584648778
 30
0.0
 10
1881.139161955384
 20
2155.374435557474
 30
0.0
 10
1882.027986418275
 20
2155.743024627169
 30
0.0
 10
1882.47239864972
 20
2155.927319162016
 30
0.0
  0
CIRCLE
  5
21D
330
1F
100
AcDbEntity
  8
0
  6
Continuous
 62
     7
370
    15
100
AcDbCircle
 10
1880.1815623155
 20
2157.6837555863
 30
0.0
 40
15.00000000000022
  0
LINE
  5
21E
330
1F
100
AcDbEntity
  8
0
  6
Continuous
 62
     7
370
    15
100
AcDbLine
 10
-517.6602499971
 20
2158.505671449
 30
0.0
 11
-518.0275412688
 21
2156.2256654384
 31
0.0
  0
LINE
  5
21F
330
1F
100
AcDbEntity
  8
0
  6
Continuous
 62
     7
370
    15
100
AcDbLine
 10
-521.609333385
 20
2159.1418457343
 30
0.0
 11
-519.4511386046
 21
2159.9637615387
 31
0.0
  0
LINE
  5
220
330
1F
100
AcDbEntity
  8
0
  6
Continuous
 62
     7
370
    15
100
AcDbLine
 10
-521.9766321072
 20
2156.8618397237
 30
0.0
 11
-520.1857360491
 21
2155.403749634
 31
0.0
  0
LINE
  5
221
330
1F
100
AcDbEntity
  8
0
  6
Continuous
 62
     7
370
    15
100
AcDbLine
 10
-517.6602499971
 20
2158.505671449
 30
0.0
 11
-519.4511386046
 21
2159.9637615387
 31
0.0
  0
LINE
  5
222
330
1F
100
AcDbEntity
  8
0
  6
Continuous
 62
     7
370
    15
100
AcDbLine
 10
-518.0275412688
 20
2156.2256654384
 30
0.0
 11
-520.1857360491
 21
2155.403749634
 31
0.0
  0
LINE
  5
223
330
1F
100
AcDbEntity
  8
0
  6
Continuous
 62
     7
370
    15
100
AcDbLine
 10
-521.609333385
 20
2159.1418457343
 30
0.0
 11
-521.9766321072
 21
2156.8618397237
 31
0.0
  0
LINE
  5
224
330
1F
100
AcDbEntity
  8
0
  6
Continuous
 62
     7
370
    15
100
AcDbLine
 10
1882.3398379197
 20
2158.505671449
 30
0.0
 11
1881.9724348893
 21
2156.2256654384
 31
0.0
  0
LINE
  5
225
330
1F
100
AcDbEntity
  8
0
  6
Continuous
 62
     7
370
    15
100
AcDbLine
 10
1882.3398379197
 20
2158.505671449
 30
0.0
 11
1880.5488375535
 21
2159.9637615387
 31
0.0
  0
LINE
  5
226
330
1F
100
AcDbEntity
  8
0
  6
Continuous
 62
     7
370
    15
100
AcDbLine
 10
1878.3906725755
 20
2159.1418457343
 30
0.0
 11
1880.5488375535
 21
2159.9637615387
 31
0.0
  0
LINE
  5
227
330
1F
100
AcDbEntity
  8
0
  6
Continuous
 62
     7
370
    15
100
AcDbLine
 10
1878.3906725755
 20
2159.1418457343
 30
0.0
 11
1878.0232695451
 21
2156.8618397237
 31
0.0
  0
LINE
  5
228
330
1F
100
AcDbEntity
  8
0
  6
Continuous
 62
     7
370
    15
100
AcDbLine
 10
1881.9724348893
 20
2156.2256654384
 30
0.0
 11
1879.8142699113
 21
2155.403749634
 31
0.0
  0
LINE
  5
229
330
1F
100
AcDbEntity
  8
0
  6
Continuous
 62
     7
370
    15
100
AcDbLine
 10
1878.0232695451
 20
2156.8618397237
 30
0.0
 11
1879.8142699113
 21
2155.403749634
 31
0.0
  0
CIRCLE
  5
22A
330
1F
100
AcDbEntity
  8
0
  6
Continuous
 62
     7
370
    15
100
AcDbCircle
 10
1880.1815623155
 20
2157.6837555863
 30
0.0
 40
20.00000000000009
  0
CIRCLE
  5
22B
330
1F
100
AcDbEntity
  8
0
  6
Continuous
 62
     7
370
    15
100
AcDbCircle
 10
-519.8184376845
 20
2157.6837555863
 30
0.0
 40
20.00000000000014
  0
SPLINE
  5
22C
330
1F
100
AcDbEntity
  8
0
  6
Continuous
 62
     7
370
    15
100
AcDbSpline
210
0.0
220
0.0
230
1.0
 70
     8
 71
     3
 72
    10
 73
     6
 74
     0
 42
0.000000001
 43
0.00000001
 40
0.0
 40
0.0
 40
0.0
 40
0.0
 40
0.1127526322808204
 40
0.6210052914612101
 40
1.0
 40
1.0
 40
1.0
 40
1.0
 10
1824.704530607728
 20
2156.304660335605
 30
0.0
 10
1824.775405289827
 20
2156.283053537102
 30
0.0
 10
1825.165760279546
 20
2156.164050229323
 30
0.0
 10
1825.831498382346
 20
2155.960967089714
 30
0.0
 10
1826.396181277606
 20
2155.788701956206
 30
0.0
 10
1826.637390028504
 20
2155.71511754622
 30
0.0
  0
SPLINE
  5
22D
330
1F
100
AcDbEntity
  8
0
  6
Continuous
 62
     7
370
    15
100
AcDbSpline
210
0.0
220
0.0
230
1.0
 70
     8
 71
     3
 72
     9
 73
     5
 74
     0
 42
0.000000001
 43
0.00000001
 40
0.0
 40
0.0
 40
0.0
 40
0.0
 40
0.5346323966378194
 40
1.0
 40
1.0
 40
1.0
 40
1.0
 10
1826.637390028504
 20
2155.71511754622
 30
0.0
 10
1826.901227580496
 20
2155.961503844958
 30
0.0
 10
1827.394720967077
 20
2156.422355638242
 30
0.0
 10
1827.885841527755
 20
2156.880846161151
 30
0.0
 10
1828.114393126038
 20
2157.094212796961
 30
0.0
  0
SPLINE
  5
22E
330
1F
100
AcDbEntity
  8
0
  6
Continuous
 62
     7
370
    15
100
AcDbSpline
210
0.0
220
0.0
230
1.0
 70
     8
 71
     3
 72
     9
 73
     5
 74
     0
 42
0.000000001
 43
0.00000001
 40
0.0
 40
0.0
 40
0.0
 40
0.0
 40
0.534663758477589
 40
1.0
 40
1.0
 40
1.0
 40
1.0
 10
1828.114393126038
 20
2157.094212796961
 30
0.0
 10
1828.032934256387
 20
2157.44591374942
 30
0.0
 10
1827.880578933326
 20
2158.103712126219
 30
0.0
 10
1827.729049117685
 20
2158.758264087529
 30
0.0
 10
1827.658536802796
 20
2159.062850837086
 30
0.0
  0
SPLINE
  5
22F
330
1F
100
AcDbEntity
  8
0
  6
Continuous
 62
     7
370
    15
100
AcDbSpline
210
0.0
220
0.0
230
1.0
 70
     8
 71
     3
 72
    10
 73
     6
 74
     0
 42
0.000000001
 43
0.00000001
 40
0.0
 40
0.0
 40
0.0
 40
0.0
 40
0.3789947085387899
 40
0.8872473677191797
 40
1.0
 40
1.0
 40
1.0
 40
1.0
 10
1827.658536802796
 20
2159.062850837086
 30
0.0
 10
1827.417328051897
 20
2159.136435247072
 30
0.0
 10
1826.852645156637
 20
2159.30870038058
 30
0.0
 10
1826.186907053837
 20
2159.511783520189
 30
0.0
 10
1825.796552064119
 20
2159.630786827968
 30
0.0
 10
1825.72567738202
 20
2159.652393626471
 30
0.0
  0
SPLINE
  5
230
330
1F
100
AcDbEntity
  8
0
  6
Continuous
 62
     7
370
    15
100
AcDbSpline
210
0.0
220
0.0
230
1.0
 70
     8
 71
     3
 72
     9
 73
     5
 74
     0
 42
0.000000001
 43
0.00000001
 40
0.0
 40
0.0
 40
0.0
 40
0.0
 40
0.5346323966378194
 40
1.0
 40
1.0
 40
1.0
 40
1.0
 10
1825.72567738202
 20
2159.652393626471
 30
0.0
 10
1825.461839830027
 20
2159.406007327734
 30
0.0
 10
1824.968346443446
 20
2158.94515553445
 30
0.0
 10
1824.47722588277
 20
2158.486665011541
 30
0.0
 10
1824.248674284486
 20
2158.273298375731
 30
0.0
  0
SPLINE
  5
231
330
1F
100
AcDbEntity
  8
0
  6
Continuous
 62
     7
370
    15
100
AcDbSpline
210
0.0
220
0.0
230
1.0
 70
     8
 71
     3
 72
     9
 73
     5
 74
     0
 42
0.000000001
 43
0.00000001
 40
0.0
 40
0.0
 40
0.0
 40
0.0
 40
0.534663758477589
 40
1.0
 40
1.0
 40
1.0
 40
1.0
 10
1824.248674284486
 20
2158.273298375731
 30
0.0
 10
1824.330133154137
 20
2157.921597423271
 30
0.0
 10
1824.482488477197
 20
2157.263799046473
 30
0.0
 10
1824.634018292839
 20
2156.609247085163
 30
0.0
 10
1824.704530607728
 20
2156.304660335605
 30
0.0
  0
CIRCLE
  5
232
330
1F
100
AcDbEntity
  8
0
  6
Continuous
 62
     7
370
    15
100
AcDbCircle
 10
1826.1815623155
 20
2157.6837555863
 30
0.0
 40
1.699999999999754
  0
SPLINE
  5
233
330
1F
100
AcDbEntity
  8
0
  6
Continuous
 62
     7
370
    15
100
AcDbSpline
210
0.0
220
0.0
230
1.0
 70
     8
 71
     3
 72
    10
 73
     6
 74
     0
 42
0.000000001
 43
0.00000001
 40
0.0
 40
0.0
 40
0.0
 40
0.0
 40
0.1127085871852367
 40
0.6209481495001509
 40
1.0
 40
1.0
 40
1.0
 40
1.0
 10
-455.2954041112161
 20
2156.304660335605
 30
0.0
 10
-455.2245638202307
 20
2156.283052785504
 30
0.0
 10
-454.8342816891528
 20
2156.164009786338
 30
0.0
 10
-454.1685418755966
 20
2155.960947409916
 30
0.0
 10
-453.6038334455508
 20
2155.788701279353
 30
0.0
 10
-453.3625893939233
 20
2155.71511754622
 30
0.0
  0
SPLINE
  5
234
330
1F
100
AcDbEntity
  8
0
  6
Continuous
 62
     7
370
    15
100
AcDbSpline
210
0.0
220
0.0
230
1.0
 70
     8
 71
     3
 72
     9
 73
     5
 74
     0
 42
0.000000001
 43
0.00000001
 40
0.0
 40
0.0
 40
0.0
 40
0.0
 40
0.5346597892489167
 40
1.0
 40
1.0
 40
1.0
 40
1.0
 10
-453.3625893939233
 20
2155.71511754622
 30
0.0
 10
-453.0987253833935
 20
2155.961496635648
 30
0.0
 10
-452.6052077936372
 20
2156.422311333858
 30
0.0
 10
-452.1141376509207
 20
2156.880840662524
 30
0.0
 10
-451.8856229672155
 20
2157.094212796961
 30
0.0
  0
SPLINE
  5
235
330
1F
100
AcDbEntity
  8
0
  6
Continuous
 62
     7
370
    15
100
AcDbSpline
210
0.0
220
0.0
230
1.0
 70
     8
 71
     3
 72
     9
 73
     5
 74
     0
 42
0.000000001
 43
0.00000001
 40
0.0
 40
0.0
 40
0.0
 40
0.0
 40
0.5346597586109935
 40
1.0
 40
1.0
 40
1.0
 40
1.0
 10
-451.8856229672155
 20
2157.094212796961
 30
0.0
 10
-451.9670615006994
 20
2157.445915252328
 30
0.0
 10
-452.1193799278342
 20
2158.103721361171
 30
0.0
 10
-452.270942905287
 20
2158.758265233525
 30
0.0
 10
-452.3414712578005
 20
2159.062850837086
 30
0.0
  0
SPLINE
  5
236
330
1F
100
AcDbEntity
  8
0
  6
Continuous
 62
     7
370
    15
100
AcDbSpline
210
0.0
220
0.0
230
1.0
 70
     8
 71
     3
 72
    10
 73
     6
 74
     0
 42
0.000000001
 43
0.00000001
 40
0.0
 40
0.0
 40
0.0
 40
0.0
 40
0.37905186386074
 40
0.8872914193940665
 40
1.0
 40
1.0
 40
1.0
 40
1.0
 10
-452.3414712578005
 20
2159.062850837086
 30
0.0
 10
-452.5827153191819
 20
2159.136434569636
 30
0.0
 10
-453.1474237563422
 20
2159.308680694039
 30
0.0
 10
-453.8131635703745
 20
2159.511743072325
 30
0.0
 10
-454.2034456889824
 20
2159.630786076295
 30
0.0
 10
-454.2742859750933
 20
2159.652393626471
 30
0.0
  0
SPLINE
  5
237
330
1F
100
AcDbEntity
  8
0
  6
Continuous
 62
     7
370
    15
100
AcDbSpline
210
0.0
220
0.0
230
1.0
 70
     8
 71
     3
 72
     9
 73
     5
 74
     0
 42
0.000000001
 43
0.00000001
 40
0.0
 40
0.0
 40
0.0
 40
0.0
 40
0.5346597892489167
 40
1.0
 40
1.0
 40
1.0
 40
1.0
 10
-454.2742859750933
 20
2159.652393626471
 30
0.0
 10
-454.5381499856231
 20
2159.406014537044
 30
0.0
 10
-455.0316675753795
 20
2158.945199838834
 30
0.0
 10
-455.5227377180959
 20
2158.486670510168
 30
0.0
 10
-455.7512524018011
 20
2158.273298375731
 30
0.0
  0
SPLINE
  5
238
330
1F
100
AcDbEntity
  8
0
  6
Continuous
 62
     7
370
    15
100
AcDbSpline
210
0.0
220
0.0
230
1.0
 70
     8
 71
     3
 72
     9
 73
     5
 74
     0
 42
0.000000001
 43
0.00000001
 40
0.0
 40
0.0
 40
0.0
 40
0.0
 40
0.5346597586109935
 40
1.0
 40
1.0
 40
1.0
 40
1.0
 10
-455.7512524018011
 20
2158.273298375731
 30
0.0
 10
-455.6698138683172
 20
2157.921595920364
 30
0.0
 10
-455.5174954411824
 20
2157.26378981152
 30
0.0
 10
-455.3659324637296
 20
2156.609245939166
 30
0.0
 10
-455.2954041112161
 20
2156.304660335605
 30
0.0
  0
CIRCLE
  5
239
330
1F
100
AcDbEntity
  8
0
  6
Continuous
 62
     7
370
    15
100
AcDbCircle
 10
-453.8184376845
 20
2157.6837555863
 30
0.0
 40
1.69999999999977
  0
SPLINE
  5
23A
330
1F
100
AcDbEntity
  8
0
  6
Continuous
 62
     7
370
    15
100
AcDbSpline
210
0.0
220
0.0
230
1.0
 70
     8
 71
     3
 72
    10
 73
     6
 74
     0
 42
0.000000001
 43
0.00000001
 40
0.0
 40
0.0
 40
0.0
 40
0.0
 40
0.112752722681017
 40
0.6209502554981073
 40
1.0
 40
1.0
 40
1.0
 40
1.0
 10
684.7045449128431
 20
2156.304660335605
 30
0.0
 10
684.7754197277294
 20
2156.283053958618
 30
0.0
 10
685.165740540971
 20
2156.164063614159
 30
0.0
 10
685.8314565081873
 20
2155.960923635551
 30
0.0
 10
686.396154206637
 20
2155.788696441023
 30
0.0
 10
686.6374043336192
 20
2155.71511754622
 30
0.0
  0
SPLINE
  5
23B
330
1F
100
AcDbEntity
  8
0
  6
Continuous
 62
     7
370
    15
100
AcDbSpline
210
0.0
220
0.0
230
1.0
 70
     8
 71
     3
 72
     9
 73
     5
 74
     0
 42
0.000000001
 43
0.00000001
 40
0.0
 40
0.0
 40
0.0
 40
0.0
 40
0.5346745037301583
 40
1.0
 40
1.0
 40
1.0
 40
1.0
 10
686.6374043336192
 20
2155.71511754622
 30
0.0
 10
686.9012925793756
 20
2155.961492762368
 30
0.0
 10
687.3948419143734
 20
2156.422287534569
 30
0.0
 10
687.8859038105949
 20
2156.880837709327
 30
0.0
 10
688.1144074311534
 20
2157.094212796961
 30
0.0
  0
SPLINE
  5
23C
330
1F
100
AcDbEntity
  8
0
  6
Continuous
 62
     7
370
    15
100
AcDbSpline
210
0.0
220
0.0
230
1.0
 70
     8
 71
     3
 72
     9
 73
     5
 74
     0
 42
0.000000001
 43
0.00000001
 40
0.0
 40
0.0
 40
0.0
 40
0.0
 40
0.534663758477589
 40
1.0
 40
1.0
 40
1.0
 40
1.0
 10
688.1144074311534
 20
2157.094212796961
 30
0.0
 10
688.0329485615017
 20
2157.44591374942
 30
0.0
 10
687.8805932384415
 20
2158.103712126219
 30
0.0
 10
687.7290634228002
 20
2158.758264087529
 30
0.0
 10
687.6585511079112
 20
2159.062850837086
 30
0.0
  0
SPLINE
  5
23D
330
1F
100
AcDbEntity
  8
0
  6
Continuous
 62
     7
370
    15
100
AcDbSpline
210
0.0
220
0.0
230
1.0
 70
     8
 71
     3
 72
    10
 73
     6
 74
     0
 42
0.000000001
 43
0.00000001
 40
0.0
 40
0.0
 40
0.0
 40
0.0
 40
0.3790491228340993
 40
0.887301355939369
 40
1.0
 40
1.0
 40
1.0
 40
1.0
 10
687.6585511079112
 20
2159.062850837086
 30
0.0
 10
687.4173038275896
 20
2159.13643598077
 30
0.0
 10
686.8525774476806
 20
2159.308688582963
 30
0.0
 10
686.1868133278579
 20
2159.511730173331
 30
0.0
 10
685.7965263052364
 20
2159.630785787879
 30
0.0
 10
685.7256916871348
 20
2159.652393626471
 30
0.0
  0
SPLINE
  5
23E
330
1F
100
AcDbEntity
  8
0
  6
Continuous
 62
     7
370
    15
100
AcDbSpline
210
0.0
220
0.0
230
1.0
 70
     8
 71
     3
 72
     9
 73
     5
 74
     0
 42
0.000000001
 43
0.00000001
 40
0.0
 40
0.0
 40
0.0
 40
0.0
 40
0.5346323966378194
 40
1.0
 40
1.0
 40
1.0
 40
1.0
 10
685.7256916871348
 20
2159.652393626471
 30
0.0
 10
685.4618541351418
 20
2159.406007327734
 30
0.0
 10
684.9683607485613
 20
2158.94515553445
 30
0.0
 10
684.4772401878847
 20
2158.486665011541
 30
0.0
 10
684.2486885896006
 20
2158.273298375731
 30
0.0
  0
SPLINE
  5
23F
330
1F
100
AcDbEntity
  8
0
  6
Continuous
 62
     7
370
    15
100
AcDbSpline
210
0.0
220
0.0
230
1.0
 70
     8
 71
     3
 72
     9
 73
     5
 74
     0
 42
0.000000001
 43
0.00000001
 40
0.0
 40
0.0
 40
0.0
 40
0.0
 40
0.534663758477589
 40
1.0
 40
1.0
 40
1.0
 40
1.0
 10
684.2486885896006
 20
2158.273298375731
 30
0.0
 10
684.3301474592524
 20
2157.921597423271
 30
0.0
 10
684.4825027823125
 20
2157.263799046473
 30
0.0
 10
684.6340325979536
 20
2156.609247085163
 30
0.0
 10
684.7045449128428
 20
2156.304660335605
 30
0.0
  0
CIRCLE
  5
240
330
1F
100
AcDbEntity
  8
0
  6
Continuous
 62
     7
370
    15
100
AcDbCircle
 10
686.1815623155
 20
2157.6837555863
 30
0.0
 40
1.699999999999754
  0
SPLINE
  5
241
330
1F
100
AcDbEntity
  8
0
  6
Continuous
 62
     7
370
    15
100
AcDbSpline
210
0.0
220
0.0
230
1.0
 70
     8
 71
     3
 72
    10
 73
     6
 74
     0
 42
0.000000001
 43
0.00000001
 40
0.0
 40
0.0
 40
0.0
 40
0.0
 40
0.1126986440606311
 40
0.6209508771659007
 40
1.0
 40
1.0
 40
1.0
 40
1.0
 10
1254.70459736493
 20
2156.304660335605
 30
0.0
 10
1254.775431983032
 20
2156.283052497013
 30
0.0
 10
1255.165719005652
 20
2156.163996882465
 30
0.0
 10
1255.831483125477
 20
2155.960955292097
 30
0.0
 10
1256.396209505385
 20
2155.788702689904
 30
0.0
 10
1256.637456785706
 20
2155.71511754622
 30
0.0
  0
SPLINE
  5
242
330
1F
100
AcDbEntity
  8
0
  6
Continuous
 62
     7
370
    15
100
AcDbSpline
210
0.0
220
0.0
230
1.0
 70
     8
 71
     3
 72
     9
 73
     5
 74
     0
 42
0.000000001
 43
0.00000001
 40
0.0
 40
0.0
 40
0.0
 40
0.0
 40
0.5346548749203313
 40
1.0
 40
1.0
 40
1.0
 40
1.0
 10
1256.637456785707
 20
2155.71511754622
 30
0.0
 10
1256.901300205351
 20
2155.96149792914
 30
0.0
 10
1257.394783818837
 20
2156.422319282273
 30
0.0
 10
1257.885833226106
 20
2156.880841648908
 30
0.0
 10
1258.114340673951
 20
2157.094212796961
 30
0.0
  0
SPLINE
  5
243
330
1F
100
AcDbEntity
  8
0
  6
Continuous
 62
     7
370
    15
100
AcDbSpline
210
0.0
220
0.0
230
1.0
 70
     8
 71
     3
 72
     9
 73
     5
 74
     0
 42
0.000000001
 43
0.00000001
 40
0.0
 40
0.0
 40
0.0
 40
0.0
 40
0.5346507622478325
 40
1.0
 40
1.0
 40
1.0
 40
1.0
 10
1258.114340673951
 20
2157.094212796961
 30
0.0
 10
1258.032943237451
 20
2157.445918632439
 30
0.0
 10
1257.880699114283
 20
2158.103742132026
 30
0.0
 10
1257.729052832394
 20
2158.758267811196
 30
0.0
 10
1257.658484350709
 20
2159.062850837086
 30
0.0
  0
SPLINE
  5
244
330
1F
100
AcDbEntity
  8
0
  6
Continuous
 62
     7
370
    15
100
AcDbSpline
210
0.0
220
0.0
230
1.0
 70
     8
 71
     3
 72
    10
 73
     6
 74
     0
 42
0.000000001
 43
0.00000001
 40
0.0
 40
0.0
 40
0.0
 40
0.0
 40
0.3790701740289253
 40
0.8872950970115155
 40
1.0
 40
1.0
 40
1.0
 40
1.0
 10
1257.658484350709
 20
2159.062850837086
 30
0.0
 10
1257.417236215599
 20
2159.136433159048
 30
0.0
 10
1256.852543179553
 20
2159.308668375574
 30
0.0
 10
1256.186831446175
 20
2159.511742960243
 30
0.0
 10
1255.796578845034
 20
2159.630786116539
 30
0.0
 10
1255.725744139222
 20
2159.652393626471
 30
0.0
  0
SPLINE
  5
245
330
1F
100
AcDbEntity
  8
0
  6
Continuous
 62
     7
370
    15
100
AcDbSpline
210
0.0
220
0.0
230
1.0
 70
     8
 71
     3
 72
     9
 73
     5
 74
     0
 42
0.000000001
 43
0.00000001
 40
0.0
 40
0.0
 40
0.0
 40
0.0
 40
0.5346745037301583
 40
1.0
 40
1.0
 40
1.0
 40
1.0
 10
1255.725744139222
 20
2159.652393626471
 30
0.0
 10
1255.461855893466
 20
2159.406018410324
 30
0.0
 10
1254.968306558467
 20
2158.945223638123
 30
0.0
 10
1254.477244662246
 20
2158.486673463365
 30
0.0
 10
1254.248741041688
 20
2158.273298375731
 30
0.0
  0
SPLINE
  5
246
330
1F
100
AcDbEntity
  8
0
  6
Continuous
 62
     7
370
    15
100
AcDbSpline
210
0.0
220
0.0
230
1.0
 70
     8
 71
     3
 72
     9
 73
     5
 74
     0
 42
0.000000001
 43
0.00000001
 40
0.0
 40
0.0
 40
0.0
 40
0.0
 40
0.534663758477589
 40
1.0
 40
1.0
 40
1.0
 40
1.0
 10
1254.248741041688
 20
2158.273298375731
 30
0.0
 10
1254.330199911339
 20
2157.921597423271
 30
0.0
 10
1254.4825552344
 20
2157.263799046473
 30
0.0
 10
1254.634085050041
 20
2156.609247085163
 30
0.0
 10
1254.70459736493
 20
2156.304660335605
 30
0.0
  0
CIRCLE
  5
247
330
1F
100
AcDbEntity
  8
0
  6
Continuous
 62
     7
370
    15
100
AcDbCircle
 10
1256.1815623155
 20
2157.6837555863
 30
0.0
 40
1.699999999999754
  0
SPLINE
  5
248
330
1F
100
AcDbEntity
  8
0
  6
Continuous
 62
     7
370
    15
100
AcDbSpline
210
0.0
220
0.0
230
1.0
 70
     8
 71
     3
 72
    10
 73
     6
 74
     0
 42
0.000000001
 43
0.00000001
 40
0.0
 40
0.0
 40
0.0
 40
0.0
 40
0.1127017734462786
 40
0.6209403518317711
 40
1.0
 40
1.0
 40
1.0
 40
1.0
 10
114.7046116700449
 20
2156.304660335605
 30
0.0
 10
114.7754463319959
 20
2156.283052661329
 30
0.0
 10
115.1657161438072
 20
2156.164003275884
 30
0.0
 10
115.8314540706628
 20
2155.960945188639
 30
0.0
 10
116.3961637785091
 20
2155.788701279149
 30
0.0
 10
116.6374114861765
 20
2155.71511754622
 30
0.0
  0
SPLINE
  5
249
330
1F
100
AcDbEntity
  8
0
  6
Continuous
 62
     7
370
    15
100
AcDbSpline
210
0.0
220
0.0
230
1.0
 70
     8
 71
     3
 72
     9
 73
     5
 74
     0
 42
0.000000001
 43
0.00000001
 40
0.0
 40
0.0
 40
0.0
 40
0.0
 40
0.5346646893559918
 40
1.0
 40
1.0
 40
1.0
 40
1.0
 10
116.6374114861765
 20
2155.71511754622
 30
0.0
 10
116.9012773188797
 20
2155.961495345849
 30
0.0
 10
117.3947937937026
 20
2156.42230340842
 30
0.0
 10
117.8858494450177
 20
2156.880839679034
 30
0.0
 10
118.1143549790659
 20
2157.094212796961
 30
0.0
  0
SPLINE
  5
24A
330
1F
100
AcDbEntity
  8
0
  6
Continuous
 62
     7
370
    15
100
AcDbSpline
210
0.0
220
0.0
230
1.0
 70
     8
 71
     3
 72
     9
 73
     5
 74
     0
 42
0.000000001
 43
0.00000001
 40
0.0
 40
0.0
 40
0.0
 40
0.0
 40
0.5346607292491713
 40
1.0
 40
1.0
 40
1.0
 40
1.0
 10
118.114354979066
 20
2157.094212796961
 30
0.0
 10
118.0329210255301
 20
2157.445914887625
 30
0.0
 10
117.8806114410015
 20
2158.103719120149
 30
0.0
 10
117.7290743976934
 20
2158.758264955426
 30
0.0
 10
117.6585582604685
 20
2159.062850837086
 30
0.0
  0
SPLINE
  5
24B
330
1F
100
AcDbEntity
  8
0
  6
Continuous
 62
     7
370
    15
100
AcDbSpline
210
0.0
220
0.0
230
1.0
 70
     8
 71
     3
 72
    10
 73
     6
 74
     0
 42
0.000000001
 43
0.00000001
 40
0.0
 40
0.0
 40
0.0
 40
0.0
 40
0.3790494339028471
 40
0.8872743171252114
 40
1.0
 40
1.0
 40
1.0
 40
1.0
 10
117.6585582604685
 20
2159.062850837086
 30
0.0
 10
117.4173095564842
 20
2159.136432855977
 30
0.0
 10
116.8525975164711
 20
2159.308672753267
 30
0.0
 10
116.1868574794926
 20
2159.511763545088
 30
0.0
 10
115.7965535561395
 20
2159.63078651846
 30
0.0
 10
115.7256988396921
 20
2159.652393626471
 30
0.0
  0
SPLINE
  5
24C
330
1F
100
AcDbEntity
  8
0
  6
Continuous
 62
     7
370
    15
100
AcDbSpline
210
0.0
220
0.0
230
1.0
 70
     8
 71
     3
 72
     9
 73
     5
 74
     0
 42
0.000000001
 43
0.00000001
 40
0.0
 40
0.0
 40
0.0
 40
0.0
 40
0.5346646893559918
 40
1.0
 40
1.0
 40
1.0
 40
1.0
 10
115.7256988396921
 20
2159.652393626471
 30
0.0
 10
115.4618330069888
 20
2159.406015826843
 30
0.0
 10
114.968316532166
 20
2158.945207764272
 30
0.0
 10
114.4772608808509
 20
2158.486671493658
 30
0.0
 10
114.2487553468027
 20
2158.273298375731
 30
0.0
  0
SPLINE
  5
24D
330
1F
100
AcDbEntity
  8
0
  6
Continuous
 62
     7
370
    15
100
AcDbSpline
210
0.0
220
0.0
230
1.0
 70
     8
 71
     3
 72
     9
 73
     5
 74
     0
 42
0.000000001
 43
0.00000001
 40
0.0
 40
0.0
 40
0.0
 40
0.0
 40
0.5346572604754727
 40
1.0
 40
1.0
 40
1.0
 40
1.0
 10
114.2487553468027
 20
2158.273298375731
 30
0.0
 10
114.3301834995854
 20
2157.92159498174
 30
0.0
 10
114.4824832227953
 20
2157.263784043799
 30
0.0
 10
114.6340712719652
 20
2156.60924522341
 30
0.0
 10
114.704611670045
 20
2156.304660335605
 30
0.0
  0
CIRCLE
  5
24E
330
1F
100
AcDbEntity
  8
0
  6
Continuous
 62
     7
370
    15
100
AcDbCircle
 10
116.1815623155
 20
2157.6837555863
 30
0.0
 40
1.699999999999766
  0
ARC
  5
24F
330
1F
100
AcDbEntity
  8
0
  6
Continuous
 62
     7
370
    15
100
AcDbCircle
 10
-453.8184376845
 20
2157.6837555863
 30
0.0
 40
14.99999999999997
100
AcDbArc
 50
56.4426902381
 51
123.5573097619
  0
ARC
  5
250
330
1F
100
AcDbEntity
  8
0
  6
Continuous
 62
     7
370
    15
100
AcDbCircle
 10
-453.8184376845
 20
2157.6837555863
 30
0.0
 40
14.99999999999959
100
AcDbArc
 50
236.4426902381
 51
303.5573097619
  0
ARC
  5
251
330
1F
100
AcDbEntity
  8
0
  6
Continuous
 62
     7
370
    15
100
AcDbCircle
 10
-453.8184376845
 20
2157.6837555863
 30
0.0
 40
30.00000000000004
100
AcDbArc
 50
240.0
 51
335.3756816478
  0
ARC
  5
252
330
1F
100
AcDbEntity
  8
0
  6
Continuous
 62
     7
370
    15
100
AcDbCircle
 10
-453.8184376845
 20
2157.6837555863
 30
0.0
 40
30.00000000000017
100
AcDbArc
 50
24.6243183522
 51
94.3987209583
  0
ARC
  5
253
330
1F
100
AcDbEntity
  8
0
  6
Continuous
 62
     7
370
    15
100
AcDbCircle
 10
686.1815623155
 20
2157.6837555863
 30
0.0
 40
15.00000000000006
100
AcDbArc
 50
56.4426902381
 51
123.5573097619
  0
ARC
  5
254
330
1F
100
AcDbEntity
  8
0
  6
Continuous
 62
     7
370
    15
100
AcDbCircle
 10
686.1815623155
 20
2157.6837555863
 30
0.0
 40
14.99999999999969
100
AcDbArc
 50
236.4426902381
 51
303.5573097619
  0
ARC
  5
255
330
1F
100
AcDbEntity
  8
0
  6
Continuous
 62
     7
370
    15
100
AcDbCircle
 10
686.1815623155
 20
2157.6837555863
 30
0.0
 40
30.00000000000013
100
AcDbArc
 50
204.6243183522
 51
335.3756816478
  0
ARC
  5
256
330
1F
100
AcDbEntity
  8
0
  6
Continuous
 62
     7
370
    15
100
AcDbCircle
 10
686.1815623155
 20
2157.6837555863
 30
0.0
 40
30.00000000000032
100
AcDbArc
 50
24.6243183522
 51
155.3756816478
  0
ARC
  5
257
330
1F
100
AcDbEntity
  8
0
  6
Continuous
 62
     7
370
    15
100
AcDbCircle
 10
1826.1815623155
 20
2157.6837555863
 30
0.0
 40
15.00000000000013
100
AcDbArc
 50
56.4426902381
 51
123.5573097619
  0
ARC
  5
258
330
1F
100
AcDbEntity
  8
0
  6
Continuous
 62
     7
370
    15
100
AcDbCircle
 10
1826.1815623155
 20
2157.6837555863
 30
0.0
 40
14.99999999999975
100
AcDbArc
 50
236.4426902381
 51
303.5573097619
  0
ARC
  5
259
330
1F
100
AcDbEntity
  8
0
  6
Continuous
 62
     7
370
    15
100
AcDbCircle
 10
1826.1815623155
 20
2157.6837555863
 30
0.0
 40
30.00000000000024
100
AcDbArc
 50
204.6243183522
 51
335.3756816478
  0
ARC
  5
25A
330
1F
100
AcDbEntity
  8
0
  6
Continuous
 62
     7
370
    15
100
AcDbCircle
 10
1826.1815623155
 20
2157.6837555863
 30
0.0
 40
30.00000000000043
100
AcDbArc
 50
24.6243183522
 51
155.3756816478
  0
ARC
  5
25B
330
1F
100
AcDbEntity
  8
0
  6
Continuous
 62
     7
370
    15
100
AcDbCircle
 10
116.1815623155
 20
2157.6837555863
 30
0.0
 40
14.99999999999997
100
AcDbArc
 50
56.4426902381
 51
123.5573097619
  0
ARC
  5
25C
330
1F
100
AcDbEntity
  8
0
  6
Continuous
 62
     7
370
    15
100
AcDbCircle
 10
116.1815623155
 20
2157.6837555863
 30
0.0
 40
14.99999999999959
100
AcDbArc
 50
236.4426902381
 51
303.5573097619
  0
ARC
  5
25D
330
1F
100
AcDbEntity
  8
0
  6
Continuous
 62
     7
370
    15
100
AcDbCircle
 10
116.1815623155
 20
2157.6837555863
 30
0.0
 40
30.0
100
AcDbArc
 50
204.6243183522
 51
335.3756816478
  0
ARC
  5
25E
330
1F
100
AcDbEntity
  8
0
  6
Continuous
 62
     7
370
    15
100
AcDbCircle
 10
116.1815623155
 20
2157.6837555863
 30
0.0
 40
30.00000000000019
100
AcDbArc
 50
24.6243183522
 51
155.3756816478
  0
ARC
  5
25F
330
1F
100
AcDbEntity
  8
0
  6
Continuous
 62
     7
370
    15
100
AcDbCircle
 10
1256.1815623155
 20
2157.6837555863
 30
0.0
 40
15.00000000000013
100
AcDbArc
 50
56.4426902381
 51
123.5573097619
  0
ARC
  5
260
330
1F
100
AcDbEntity
  8
0
  6
Continuous
 62
     7
370
    15
100
AcDbCircle
 10
1256.1815623155
 20
2157.6837555863
 30
0.0
 40
14.99999999999975
100
AcDbArc
 50
236.4426902381
 51
303.5573097619
  0
ARC
  5
261
330
1F
100
AcDbEntity
  8
0
  6
Continuous
 62
     7
370
    15
100
AcDbCircle
 10
1256.1815623155
 20
2157.6837555863
 30
0.0
 40
30.00000000000024
100
AcDbArc
 50
204.6243183522
 51
335.3756816478
  0
ARC
  5
262
330
1F
100
AcDbEntity
  8
0
  6
Continuous
 62
     7
370
    15
100
AcDbCircle
 10
1256.1815623155
 20
2157.6837555863
 30
0.0
 40
30.00000000000043
100
AcDbArc
 50
24.6243183522
 51
155.3756816478
  0
LINE
  5
263
330
1F
100
AcDbEntity
  8
0
  6
Continuous
 62
     7
370
    15
100
AcDbLine
 10
1833.6995867601
 20
-180.9917841458
 30
0.0
 11
1864.2984656205
 21
-180.9917841458
 31
0.0
  0
LINE
  5
264
330
1F
100
AcDbEntity
  8
0
  6
Continuous
 62
     7
370
    15
100
AcDbLine
 10
1896.0689333787
 20
-180.9917841458
 30
0.0
 11
1956.1816481462
 21
-180.9917841458
 31
0.0
  0
LINE
  5
265
330
1F
100
AcDbEntity
  8
0
  6
Continuous
 62
     7
370
    15
100
AcDbLine
 10
1263.6996535173
 20
-180.9917841458
 30
0.0
 11
1818.6315325609
 21
-180.9917841458
 31
0.0
  0
LINE
  5
266
330
1F
100
AcDbEntity
  8
0
  6
Continuous
 62
     7
370
    15
100
AcDbLine
 10
693.6996010652
 20
-180.9917841458
 30
0.0
 11
1248.6315993181
 21
-180.9917841458
 31
0.0
  0
LINE
  5
267
330
1F
100
AcDbEntity
  8
0
  6
Continuous
 62
     7
370
    15
100
AcDbLine
 10
123.6996082177
 20
-180.9917841458
 30
0.0
 11
201.1815337053
 21
-180.9917841458
 31
0.0
  0
LINE
  5
268
330
1F
100
AcDbEntity
  8
0
  6
Continuous
 62
     7
370
    15
100
AcDbLine
 10
231.1815646997
 20
-180.9917841458
 30
0.0
 11
678.631546866
 21
-180.9917841458
 31
0.0
  0
LINE
  5
269
330
1F
100
AcDbEntity
  8
0
  6
Continuous
 62
     7
370
    15
100
AcDbLine
 10
-446.3003962712
 20
-180.9917841458
 30
0.0
 11
108.6315540185
 21
-180.9917841458
 31
0.0
  0
LINE
  5
26A
330
1F
100
AcDbEntity
  8
0
  6
Continuous
 62
     7
370
    15
100
AcDbLine
 10
-583.8184329161
 20
-180.9917841458
 30
0.0
 11
-535.7015403399
 21
-180.9917841458
 31
0.0
  0
LINE
  5
26B
330
1F
100
AcDbEntity
  8
0
  6
Continuous
 62
     7
370
    15
100
AcDbLine
 10
-503.9310204277
 20
-180.9917841458
 30
0.0
 11
-498.8184394726
 21
-180.9917841458
 31
0.0
  0
LINE
  5
26C
330
1F
100
AcDbEntity
  8
0
  6
Continuous
 62
     7
370
    15
100
AcDbLine
 10
-468.8184373492
 20
-180.9917841458
 30
0.0
 11
-461.3684378976
 21
-180.9917841458
 31
0.0
  0
LINE
  5
26D
330
1F
100
AcDbEntity
  8
0
  6
Continuous
 62
     7
370
    15
100
AcDbLine
 10
-461.3184375169
 20
-155.9917847046
 30
0.0
 11
-468.9130802119
 21
-155.9917847046
 31
0.0
  0
LINE
  5
26E
330
1F
100
AcDbEntity
  8
0
  6
Continuous
 62
     7
370
    15
100
AcDbLine
 10
-498.7237947473
 20
-155.9917847046
 30
0.0
 11
-503.8965577671
 21
-155.9917847046
 31
0.0
  0
LINE
  5
26F
330
1F
100
AcDbEntity
  8
0
  6
Continuous
 62
     7
370
    15
100
AcDbLine
 10
-535.7403206119
 20
-155.9917847046
 30
0.0
 11
-583.8184329161
 21
-155.9917847046
 31
0.0
  0
LINE
  5
270
330
1F
100
AcDbEntity
  8
0
  6
Continuous
 62
     7
370
    15
100
AcDbLine
 10
108.6815623155
 20
-155.9917847046
 30
0.0
 11
-446.3362996878
 21
-155.9917847046
 31
0.0
  0
LINE
  5
271
330
1F
100
AcDbEntity
  8
0
  6
Continuous
 62
     7
370
    15
100
AcDbLine
 10
678.6816147676
 20
-155.9917847046
 30
0.0
 11
231.0869125238
 21
-155.9917847046
 31
0.0
  0
LINE
  5
272
330
1F
100
AcDbEntity
  8
0
  6
Continuous
 62
     7
370
    15
100
AcDbLine
 10
201.2761858812
 20
-155.9917847046
 30
0.0
 11
123.6637262216
 21
-155.9917847046
 31
0.0
  0
LINE
  5
273
330
1F
100
AcDbEntity
  8
0
  6
Continuous
 62
     7
370
    15
100
AcDbLine
 10
1248.6815480104
 20
-155.9917847046
 30
0.0
 11
693.663719069
 21
-155.9917847046
 31
0.0
  0
LINE
  5
274
330
1F
100
AcDbEntity
  8
0
  6
Continuous
 62
     7
370
    15
100
AcDbLine
 10
1818.6816004625
 20
-155.9917847046
 30
0.0
 11
1263.6636523118
 21
-155.9917847046
 31
0.0
  0
LINE
  5
275
330
1F
100
AcDbEntity
  8
0
  6
Continuous
 62
     7
370
    15
100
AcDbLine
 10
1956.1816481462
 20
-155.9917847046
 30
0.0
 11
1896.1035040727
 21
-155.9917847046
 31
0.0
  0
LINE
  5
276
330
1F
100
AcDbEntity
  8
0
  6
Continuous
 62
     7
370
    15
100
AcDbLine
 10
1864.2596033922
 20
-155.9917847046
 30
0.0
 11
1833.6635855546
 21
-155.9917847046
 31
0.0
  0
LINE
  5
277
330
1F
100
AcDbEntity
  8
0
  6
Continuous
 62
     7
370
    15
100
AcDbLine
 10
1818.7316683641
 20
-180.9917841458
 30
0.0
 11
1819.7315958848
 21
-181.9917861724
 31
0.0
  0
LINE
  5
278
330
1F
100
AcDbEntity
  8
0
  6
Continuous
 62
     7
370
    15
100
AcDbLine
 10
1832.6314715257
 20
-181.9917861724
 30
0.0
 11
1833.631637465
 21
-180.9917841458
 31
0.0
  0
LINE
  5
279
330
1F
100
AcDbEntity
  8
0
  6
Continuous
 62
     7
370
    15
100
AcDbLine
 10
-461.2684376018
 20
-180.9917841458
 30
0.0
 11
-460.2684379036
 21
-181.9917861724
 31
0.0
  0
LINE
  5
27A
330
1F
100
AcDbEntity
  8
0
  6
Continuous
 62
     7
370
    15
100
AcDbLine
 10
-447.3684374655
 20
-181.9917861724
 30
0.0
 11
-446.3684377672
 21
-180.9917841458
 31
0.0
  0
LINE
  5
27B
330
1F
100
AcDbEntity
  8
0
  6
Continuous
 62
     7
370
    15
100
AcDbLine
 10
1248.731615912
 20
-180.9917841458
 30
0.0
 11
1249.7315434327
 21
-181.9917861724
 31
0.0
  0
LINE
  5
27C
330
1F
100
AcDbEntity
  8
0
  6
Continuous
 62
     7
370
    15
100
AcDbLine
 10
1262.6315382829
 20
-181.9917861724
 30
0.0
 11
1263.6315850129
 21
-180.9917841458
 31
0.0
  0
LINE
  5
27D
330
1F
100
AcDbEntity
  8
0
  6
Continuous
 62
     7
370
    15
100
AcDbLine
 10
678.7315634599
 20
-180.9917841458
 30
0.0
 11
679.7316101899
 21
-181.9917861724
 31
0.0
  0
LINE
  5
27E
330
1F
100
AcDbEntity
  8
0
  6
Continuous
 62
     7
370
    15
100
AcDbLine
 10
692.6316050401
 20
-181.9917861724
 30
0.0
 11
693.6315325609
 21
-180.9917841458
 31
0.0
  0
LINE
  5
27F
330
1F
100
AcDbEntity
  8
0
  6
Continuous
 62
     7
370
    15
100
AcDbLine
 10
108.7315706125
 20
-180.9917841458
 30
0.0
 11
109.7315577379
 21
-181.9917861724
 31
0.0
  0
LINE
  5
280
330
1F
100
AcDbEntity
  8
0
  6
Continuous
 62
     7
370
    15
100
AcDbLine
 10
122.631552588
 20
-181.9917861724
 30
0.0
 11
123.6315397134
 21
-180.9917841458
 31
0.0
  0
ARC
  5
281
330
1F
100
AcDbEntity
  8
0
  6
Continuous
 62
     7
370
    15
100
AcDbCircle
 10
-469.0184376845
 20
-156.161783476
 30
0.0
 40
0.1999999999999948
100
AcDbArc
 50
0.0
 51
80.7694259592
  0
ARC
  5
282
330
1F
100
AcDbEntity
  8
0
  6
Continuous
 62
     7
370
    15
100
AcDbCircle
 10
-498.6184376845
 20
-156.161783476
 30
0.0
 40
0.2000000000001023
100
AcDbArc
 50
99.2305740409
 51
180.0
  0
LINE
  5
283
330
1F
100
AcDbEntity
  8
0
  6
Continuous
 62
     7
370
    15
100
AcDbLine
 10
-498.8184394726
 20
-156.1617836708
 30
0.0
 11
-498.8184394726
 21
-157.2917843589
 31
0.0
  0
LINE
  5
284
330
1F
100
AcDbEntity
  8
0
  6
Continuous
 62
     7
370
    15
100
AcDbLine
 10
-468.8184373492
 20
-157.2917843589
 30
0.0
 11
-468.8184373492
 21
-156.1617836708
 31
0.0
  0
ARC
  5
285
330
1F
100
AcDbEntity
  8
0
  6
Continuous
 62
     7
370
    15
100
AcDbCircle
 10
-498.6184376845
 20
-157.2917843246
 30
0.0
 40
0.1999999999999886
100
AcDbArc
 50
180.0
 51
270.0
  0
ARC
  5
286
330
1F
100
AcDbEntity
  8
0
  6
Continuous
 62
     7
370
    15
100
AcDbCircle
 10
-469.0184376845
 20
-157.2917843246
 30
0.0
 40
0.1999999999999886
100
AcDbArc
 50
270.0
 51
0.0
  0
ARC
  5
287
330
1F
100
AcDbEntity
  8
0
  6
Continuous
 62
     7
370
    15
100
AcDbCircle
 10
-488.2353062927
 20
-274.4104704069
 30
0.0
 40
120.0
100
AcDbArc
 50
80.7694259592
 51
86.6956102374
  0
ARC
  5
288
330
1F
100
AcDbEntity
  8
0
  6
Continuous
 62
     7
370
    15
100
AcDbCircle
 10
-479.4015690763
 20
-274.4104704069
 30
0.0
 40
120.0
100
AcDbArc
 50
93.3038183851
 51
99.2305740408
  0
ARC
  5
289
330
1F
100
AcDbEntity
  8
0
  6
Continuous
 62
     7
370
    15
100
AcDbCircle
 10
-493.7684376845
 20
-157.6917843246
 30
0.0
 40
0.2000000000000171
100
AcDbArc
 50
0.0
 51
90.0
  0
ARC
  5
28A
330
1F
100
AcDbEntity
  8
0
  6
Continuous
 62
     7
370
    15
100
AcDbCircle
 10
-473.8684376845
 20
-157.6917843246
 30
0.0
 40
0.2000000000000171
100
AcDbArc
 50
90.0
 51
180.0
  0
LINE
  5
28B
330
1F
100
AcDbEntity
  8
0
  6
Continuous
 62
     7
370
    15
100
AcDbLine
 10
-493.5684362838
 20
-157.6917846107
 30
0.0
 11
-493.5684362838
 21
-157.9917841011
 31
0.0
  0
LINE
  5
28C
330
1F
100
AcDbEntity
  8
0
  6
Continuous
 62
     7
370
    15
100
AcDbLine
 10
-474.0684377441
 20
-157.9917841011
 30
0.0
 11
-474.0684377441
 21
-157.6917846107
 31
0.0
  0
ARC
  5
28D
330
1F
100
AcDbEntity
  8
0
  6
Continuous
 62
     7
370
    15
100
AcDbCircle
 10
230.9815623155
 20
-156.161783476
 30
0.0
 40
0.1999999999999994
100
AcDbArc
 50
0.0
 51
80.7694259592
  0
ARC
  5
28E
330
1F
100
AcDbEntity
  8
0
  6
Continuous
 62
     7
370
    15
100
AcDbCircle
 10
201.3815623155
 20
-156.161783476
 30
0.0
 40
0.1999999999999994
100
AcDbArc
 50
99.2305740408
 51
180.0
  0
LINE
  5
28F
330
1F
100
AcDbEntity
  8
0
  6
Continuous
 62
     7
370
    15
100
AcDbLine
 10
201.1815337053
 20
-156.1617836708
 30
0.0
 11
201.1815337053
 21
-157.2917843589
 31
0.0
  0
LINE
  5
290
330
1F
100
AcDbEntity
  8
0
  6
Continuous
 62
     7
370
    15
100
AcDbLine
 10
231.1815646997
 20
-157.2917843589
 30
0.0
 11
231.1815646997
 21
-156.1617836708
 31
0.0
  0
ARC
  5
291
330
1F
100
AcDbEntity
  8
0
  6
Continuous
 62
     7
370
    15
100
AcDbCircle
 10
201.3815623155
 20
-157.2917843246
 30
0.0
 40
0.1999999999999886
100
AcDbArc
 50
180.0
 51
270.0
  0
ARC
  5
292
330
1F
100
AcDbEntity
  8
0
  6
Continuous
 62
     7
370
    15
100
AcDbCircle
 10
230.9815623155
 20
-157.2917843246
 30
0.0
 40
0.1999999999999886
100
AcDbArc
 50
270.0
 51
0.0
  0
ARC
  5
293
330
1F
100
AcDbEntity
  8
0
  6
Continuous
 62
     7
370
    15
100
AcDbCircle
 10
211.7646937073
 20
-274.4104704069
 30
0.0
 40
120.0000000000001
100
AcDbArc
 50
80.7694259592
 51
86.6956102374
  0
ARC
  5
294
330
1F
100
AcDbEntity
  8
0
  6
Continuous
 62
     7
370
    15
100
AcDbCircle
 10
220.5984309237
 20
-274.4104704069
 30
0.0
 40
120.0
100
AcDbArc
 50
93.3038183851
 51
99.2305740408
  0
ARC
  5
295
330
1F
100
AcDbEntity
  8
0
  6
Continuous
 62
     7
370
    15
100
AcDbCircle
 10
206.2315623155
 20
-157.6917843246
 30
0.0
 40
0.1999999999999886
100
AcDbArc
 50
0.0
 51
90.0
  0
ARC
  5
296
330
1F
100
AcDbEntity
  8
0
  6
Continuous
 62
     7
370
    15
100
AcDbCircle
 10
226.1315623155
 20
-157.6917843246
 30
0.0
 40
0.1999999999999886
100
AcDbArc
 50
90.0
 51
180.0
  0
LINE
  5
297
330
1F
100
AcDbEntity
  8
0
  6
Continuous
 62
     7
370
    15
100
AcDbLine
 10
206.4315704217
 20
-157.6917846107
 30
0.0
 11
206.4315704217
 21
-157.9917841011
 31
0.0
  0
LINE
  5
298
330
1F
100
AcDbEntity
  8
0
  6
Continuous
 62
     7
370
    15
100
AcDbLine
 10
225.9315875879
 20
-157.9917841011
 30
0.0
 11
225.9315875879
 21
-157.6917846107
 31
0.0
  0
LINE
  5
299
330
1F
100
AcDbEntity
  8
0
  6
Continuous
 62
     7
370
    15
100
AcDbLine
 10
231.1815646997
 20
-185.2917861545
 30
0.0
 11
231.1815646997
 21
-185.1917844617
 31
0.0
  0
LINE
  5
29A
330
1F
100
AcDbEntity
  8
0
  6
Continuous
 62
     7
370
    15
100
AcDbLine
 10
201.1815337053
 20
-185.1917844617
 30
0.0
 11
201.1815337053
 21
-185.2917861545
 31
0.0
  0
LINE
  5
29B
330
1F
100
AcDbEntity
  8
0
  6
Continuous
 62
     7
370
    15
100
AcDbLine
 10
201.1815337053
 20
-185.2917861545
 30
0.0
 11
201.3815668931
 21
-185.4917858147
 31
0.0
  0
LINE
  5
29C
330
1F
100
AcDbEntity
  8
0
  6
Continuous
 62
     7
370
    15
100
AcDbLine
 10
230.9815911165
 20
-185.4917858147
 30
0.0
 11
231.1815646997
 21
-185.2917861545
 31
0.0
  0
LINE
  5
29D
330
1F
100
AcDbEntity
  8
0
  6
Continuous
 62
     7
370
    15
100
AcDbLine
 10
-468.8184373492
 20
-185.2917861545
 30
0.0
 11
-468.8184373492
 21
-185.1917844617
 31
0.0
  0
LINE
  5
29E
330
1F
100
AcDbEntity
  8
0
  6
Continuous
 62
     7
370
    15
100
AcDbLine
 10
-498.8184394726
 20
-185.1917844617
 30
0.0
 11
-498.8184394726
 21
-185.2917861545
 31
0.0
  0
LINE
  5
29F
330
1F
100
AcDbEntity
  8
0
  6
Continuous
 62
     7
370
    15
100
AcDbLine
 10
-498.8184394726
 20
-185.2917861545
 30
0.0
 11
-498.6184360871
 21
-185.4917858147
 31
0.0
  0
LINE
  5
2A0
330
1F
100
AcDbEntity
  8
0
  6
Continuous
 62
     7
370
    15
100
AcDbLine
 10
-469.0184379408
 20
-185.4917858147
 30
0.0
 11
-468.8184373492
 21
-185.2917861545
 31
0.0
  0
LINE
  5
2A1
330
1F
100
AcDbEntity
  8
0
  6
Continuous
 62
     7
370
    15
100
AcDbLine
 10
187.1815351358
 20
-157.9917841011
 30
0.0
 11
187.1815351358
 21
-159.491784347
 31
0.0
  0
LINE
  5
2A2
330
1F
100
AcDbEntity
  8
0
  6
Continuous
 62
     7
370
    15
100
AcDbLine
 10
245.1815632692
 20
-159.491784347
 30
0.0
 11
245.1815632692
 21
-157.9917841011
 31
0.0
  0
LINE
  5
2A3
330
1F
100
AcDbEntity
  8
0
  6
Continuous
 62
     7
370
    15
100
AcDbLine
 10
-454.818437732
 20
-178.991783818
 30
0.0
 11
-454.818437732
 21
-177.4917845034
 31
0.0
  0
LINE
  5
2A4
330
1F
100
AcDbEntity
  8
0
  6
Continuous
 62
     7
370
    15
100
AcDbLine
 10
-512.8184380421
 20
-177.4917845034
 30
0.0
 11
-512.8184380421
 21
-178.991783818
 31
0.0
  0
LINE
  5
2A5
330
1F
100
AcDbEntity
  8
0
  6
Continuous
 62
     7
370
    15
100
AcDbLine
 10
-506.8184370587
 20
-174.2917843515
 30
0.0
 11
-506.8184370587
 21
-177.4917845034
 31
0.0
  0
LINE
  5
2A6
330
1F
100
AcDbEntity
  8
0
  6
Continuous
 62
     7
370
    15
100
AcDbLine
 10
245.1815632692
 20
-178.991783818
 30
0.0
 11
245.1815632692
 21
-177.4917845034
 31
0.0
  0
LINE
  5
2A7
330
1F
100
AcDbEntity
  8
0
  6
Continuous
 62
     7
370
    15
100
AcDbLine
 10
187.1815351358
 20
-177.4917845034
 30
0.0
 11
187.1815351358
 21
-178.991783818
 31
0.0
  0
LINE
  5
2A8
330
1F
100
AcDbEntity
  8
0
  6
Continuous
 62
     7
370
    15
100
AcDbLine
 10
-512.8184380421
 20
-157.9917841011
 30
0.0
 11
-512.8184380421
 21
-159.491784347
 31
0.0
  0
LINE
  5
2A9
330
1F
100
AcDbEntity
  8
0
  6
Continuous
 62
     7
370
    15
100
AcDbLine
 10
-454.818437732
 20
-159.491784347
 30
0.0
 11
-454.818437732
 21
-157.9917841011
 31
0.0
  0
LINE
  5
2AA
330
1F
100
AcDbEntity
  8
0
  6
Continuous
 62
     7
370
    15
100
AcDbLine
 10
-506.8184370587
 20
-159.491784347
 30
0.0
 11
-506.8184370587
 21
-162.691784499
 31
0.0
  0
LINE
  5
2AB
330
1F
100
AcDbEntity
  8
0
  6
Continuous
 62
     7
370
    15
100
AcDbLine
 10
245.1815632692
 20
-160.5122130716
 30
0.0
 11
245.1815632692
 21
-159.491784347
 31
0.0
  0
LINE
  5
2AC
330
1F
100
AcDbEntity
  8
0
  6
Continuous
 62
     7
370
    15
100
AcDbLine
 10
187.1815351358
 20
-159.491784347
 30
0.0
 11
187.1815351358
 21
-160.5122130716
 31
0.0
  0
ARC
  5
2AD
330
1F
100
AcDbEntity
  8
0
  6
Continuous
 62
     7
370
    15
100
AcDbCircle
 10
254.7815623155
 20
-168.5178357479
 30
0.0
 40
12.49999999999995
100
AcDbArc
 50
140.1746287392
 51
219.8253712608
  0
ARC
  5
2AE
330
1F
100
AcDbEntity
  8
0
  6
Continuous
 62
     7
370
    15
100
AcDbCircle
 10
177.5815623155
 20
-168.5178357479
 30
0.0
 40
12.49999999999997
100
AcDbArc
 50
320.1746287392
 51
39.8253712608
  0
LINE
  5
2AF
330
1F
100
AcDbEntity
  8
0
  6
Continuous
 62
     7
370
    15
100
AcDbLine
 10
245.1815632692
 20
-177.4917845034
 30
0.0
 11
245.1815632692
 21
-176.5234586203
 31
0.0
  0
LINE
  5
2B0
330
1F
100
AcDbEntity
  8
0
  6
Continuous
 62
     7
370
    15
100
AcDbLine
 10
187.1815351358
 20
-176.5234586203
 30
0.0
 11
187.1815351358
 21
-177.4917845034
 31
0.0
  0
LINE
  5
2B1
330
1F
100
AcDbEntity
  8
0
  6
Continuous
 62
     7
370
    15
100
AcDbLine
 10
-454.818437732
 20
-160.5122130716
 30
0.0
 11
-454.818437732
 21
-159.491784347
 31
0.0
  0
LINE
  5
2B2
330
1F
100
AcDbEntity
  8
0
  6
Continuous
 62
     7
370
    15
100
AcDbLine
 10
-512.8184380421
 20
-159.491784347
 30
0.0
 11
-512.8184380421
 21
-160.5122130716
 31
0.0
  0
ARC
  5
2B3
330
1F
100
AcDbEntity
  8
0
  6
Continuous
 62
     7
370
    15
100
AcDbCircle
 10
-445.2184376845
 20
-168.5178357479
 30
0.0
 40
12.49999999999993
100
AcDbArc
 50
140.1746287392
 51
219.8253712608
  0
ARC
  5
2B4
330
1F
100
AcDbEntity
  8
0
  6
Continuous
 62
     7
370
    15
100
AcDbCircle
 10
-522.4184376845
 20
-168.5178357479
 30
0.0
 40
12.49999999999993
100
AcDbArc
 50
320.1746287392
 51
39.8253712608
  0
LINE
  5
2B5
330
1F
100
AcDbEntity
  8
0
  6
Continuous
 62
     7
370
    15
100
AcDbLine
 10
-454.818437732
 20
-177.4917845034
 30
0.0
 11
-454.818437732
 21
-176.5234586203
 31
0.0
  0
LINE
  5
2B6
330
1F
100
AcDbEntity
  8
0
  6
Continuous
 62
     7
370
    15
100
AcDbLine
 10
-512.8184380421
 20
-176.5234586203
 30
0.0
 11
-512.8184380421
 21
-177.4917845034
 31
0.0
  0
LINE
  5
2B7
330
1F
100
AcDbEntity
  8
0
  6
Continuous
 62
     7
370
    15
100
AcDbLine
 10
231.1815646997
 20
-185.1917844617
 30
0.0
 11
231.1815646997
 21
-179.7917861843
 31
0.0
  0
LINE
  5
2B8
330
1F
100
AcDbEntity
  8
0
  6
Continuous
 62
     7
370
    15
100
AcDbLine
 10
201.1815337053
 20
-179.7917861843
 30
0.0
 11
201.1815337053
 21
-185.1917844617
 31
0.0
  0
LINE
  5
2B9
330
1F
100
AcDbEntity
  8
0
  6
Continuous
 62
     7
370
    15
100
AcDbLine
 10
231.1815646997
 20
-179.7917861843
 30
0.0
 11
230.8815745225
 21
-179.4917848313
 31
0.0
  0
LINE
  5
2BA
330
1F
100
AcDbEntity
  8
0
  6
Continuous
 62
     7
370
    15
100
AcDbLine
 10
201.4815834871
 20
-179.4917848313
 30
0.0
 11
201.1815337053
 21
-179.7917861843
 31
0.0
  0
LINE
  5
2BB
330
1F
100
AcDbEntity
  8
0
  6
Continuous
 62
     7
370
    15
100
AcDbLine
 10
201.1815337053
 20
-185.1917844617
 30
0.0
 11
201.4815834871
 21
-185.4917858147
 31
0.0
  0
LINE
  5
2BC
330
1F
100
AcDbEntity
  8
0
  6
Continuous
 62
     7
370
    15
100
AcDbLine
 10
230.8815745225
 20
-185.4917858147
 30
0.0
 11
231.1815646997
 21
-185.1917844617
 31
0.0
  0
LINE
  5
2BD
330
1F
100
AcDbEntity
  8
0
  6
Continuous
 62
     7
370
    15
100
AcDbLine
 10
225.9315875879
 20
-179.4917848313
 30
0.0
 11
225.9315875879
 21
-178.991783818
 31
0.0
  0
LINE
  5
2BE
330
1F
100
AcDbEntity
  8
0
  6
Continuous
 62
     7
370
    15
100
AcDbLine
 10
206.4315704217
 20
-178.991783818
 30
0.0
 11
206.4315704217
 21
-179.4917848313
 31
0.0
  0
LINE
  5
2BF
330
1F
100
AcDbEntity
  8
0
  6
Continuous
 62
     7
370
    15
100
AcDbLine
 10
-468.8184373492
 20
-179.7917861843
 30
0.0
 11
-469.1184377709
 21
-179.4917848313
 31
0.0
  0
LINE
  5
2C0
330
1F
100
AcDbEntity
  8
0
  6
Continuous
 62
     7
370
    15
100
AcDbLine
 10
-498.5184381196
 20
-179.4917848313
 30
0.0
 11
-498.8184394726
 21
-179.7917861843
 31
0.0
  0
LINE
  5
2C1
330
1F
100
AcDbEntity
  8
0
  6
Continuous
 62
     7
370
    15
100
AcDbLine
 10
-468.8184373492
 20
-185.1917844617
 30
0.0
 11
-468.8184373492
 21
-179.7917861843
 31
0.0
  0
LINE
  5
2C2
330
1F
100
AcDbEntity
  8
0
  6
Continuous
 62
     7
370
    15
100
AcDbLine
 10
-498.8184394726
 20
-179.7917861843
 30
0.0
 11
-498.8184394726
 21
-185.1917844617
 31
0.0
  0
LINE
  5
2C3
330
1F
100
AcDbEntity
  8
0
  6
Continuous
 62
     7
370
    15
100
AcDbLine
 10
-498.8184394726
 20
-185.1917844617
 30
0.0
 11
-498.5184381196
 21
-185.4917858147
 31
0.0
  0
LINE
  5
2C4
330
1F
100
AcDbEntity
  8
0
  6
Continuous
 62
     7
370
    15
100
AcDbLine
 10
-469.1184377709
 20
-185.4917858147
 30
0.0
 11
-468.8184373492
 21
-185.1917844617
 31
0.0
  0
LINE
  5
2C5
330
1F
100
AcDbEntity
  8
0
  6
Continuous
 62
     7
370
    15
100
AcDbLine
 10
-474.0684377441
 20
-179.4917848313
 30
0.0
 11
-474.0684377441
 21
-178.991783818
 31
0.0
  0
LINE
  5
2C6
330
1F
100
AcDbEntity
  8
0
  6
Continuous
 62
     7
370
    15
100
AcDbLine
 10
-493.5684362838
 20
-178.991783818
 30
0.0
 11
-493.5684362838
 21
-179.4917848313
 31
0.0
  0
LINE
  5
2C7
330
1F
100
AcDbEntity
  8
0
  6
Continuous
 62
     7
370
    15
100
AcDbLine
 10
-471.318437759
 20
-192.8233955407
 30
0.0
 11
-471.318437759
 21
-191.4917830729
 31
0.0
  0
LINE
  5
2C8
330
1F
100
AcDbEntity
  8
0
  6
Continuous
 62
     7
370
    15
100
AcDbLine
 10
-496.3184381315
 20
-191.4917830729
 30
0.0
 11
-496.3184381315
 21
-192.8233955407
 31
0.0
  0
ARC
  5
2C9
330
1F
100
AcDbEntity
  8
0
  6
Continuous
 62
     7
370
    15
100
AcDbCircle
 10
-496.1184376845
 20
-192.823397027
 30
0.0
 40
0.2000000000000298
100
AcDbArc
 50
180.0
 51
260.2307482568
  0
ARC
  5
2CA
330
1F
100
AcDbEntity
  8
0
  6
Continuous
 62
     7
370
    15
100
AcDbCircle
 10
-471.5184376845
 20
-192.823397027
 30
0.0
 40
0.2000000000001023
100
AcDbArc
 50
279.7692517432
 51
0.0
  0
ARC
  5
2CB
330
1F
100
AcDbEntity
  8
0
  6
Continuous
 62
     7
370
    15
100
AcDbCircle
 10
-475.7906961339
 20
-74.7606047364
 30
0.0
 40
120.0
100
AcDbArc
 50
260.2307482568
 51
266.16417102
  0
ARC
  5
2CC
330
1F
100
AcDbEntity
  8
0
  6
Continuous
 62
     7
370
    15
100
AcDbCircle
 10
-491.8461792351
 20
-74.7606047364
 30
0.0
 40
120.0
100
AcDbArc
 50
273.83582898
 51
279.7692517432
  0
LINE
  5
2CD
330
1F
100
AcDbEntity
  8
0
  6
Continuous
 62
     7
370
    15
100
AcDbLine
 10
228.6815670839
 20
-192.8233955407
 30
0.0
 11
228.6815670839
 21
-191.4917830729
 31
0.0
  0
LINE
  5
2CE
330
1F
100
AcDbEntity
  8
0
  6
Continuous
 62
     7
370
    15
100
AcDbLine
 10
203.6815909257
 20
-191.4917830729
 30
0.0
 11
203.6815909257
 21
-192.8233955407
 31
0.0
  0
ARC
  5
2CF
330
1F
100
AcDbEntity
  8
0
  6
Continuous
 62
     7
370
    15
100
AcDbCircle
 10
203.8815623155
 20
-192.823397027
 30
0.0
 40
0.2000000000000298
100
AcDbArc
 50
180.0
 51
260.2307482568
  0
ARC
  5
2D0
330
1F
100
AcDbEntity
  8
0
  6
Continuous
 62
     7
370
    15
100
AcDbCircle
 10
228.4815623155
 20
-192.823397027
 30
0.0
 40
0.2000000000000298
100
AcDbArc
 50
279.7692517432
 51
0.0
  0
ARC
  5
2D1
330
1F
100
AcDbEntity
  8
0
  6
Continuous
 62
     7
370
    15
100
AcDbCircle
 10
224.2093038661
 20
-74.7606047364
 30
0.0
 40
120.0
100
AcDbArc
 50
260.2307482568
 51
266.16417102
  0
ARC
  5
2D2
330
1F
100
AcDbEntity
  8
0
  6
Continuous
 62
     7
370
    15
100
AcDbCircle
 10
208.1538207649
 20
-74.7606047364
 30
0.0
 40
120.0
100
AcDbArc
 50
273.83582898
 51
279.7692517432
  0
LINE
  5
2D3
330
1F
100
AcDbEntity
  8
0
  6
Continuous
 62
     7
370
    15
100
AcDbLine
 10
-504.8184367308
 20
-194.4217834973
 30
0.0
 11
-504.8184367308
 21
-193.0917840803
 31
0.0
  0
LINE
  5
2D4
330
1F
100
AcDbEntity
  8
0
  6
Continuous
 62
     7
370
    15
100
AcDbLine
 10
-534.8184379229
 20
-193.0917840803
 30
0.0
 11
-534.8184379229
 21
-194.4217834973
 31
0.0
  0
ARC
  5
2D5
330
1F
100
AcDbEntity
  8
0
  6
Continuous
 62
     7
370
    15
100
AcDbCircle
 10
-534.6184376845
 20
-194.4217851733
 30
0.0
 40
0.2000000000002728
100
AcDbArc
 50
180.0
 51
260.7694259591
  0
ARC
  5
2D6
330
1F
100
AcDbEntity
  8
0
  6
Continuous
 62
     7
370
    15
100
AcDbCircle
 10
-505.0184376845
 20
-194.4217851733
 30
0.0
 40
0.2000000000000222
100
AcDbArc
 50
279.2305740409
 51
0.0
  0
ARC
  5
2D7
330
1F
100
AcDbEntity
  8
0
  6
Continuous
 62
     7
370
    15
100
AcDbCircle
 10
-515.4015690763
 20
-76.1730982424
 30
0.0
 40
120.0
100
AcDbArc
 50
260.7694259592
 51
266.5831083863
  0
ARC
  5
2D8
330
1F
100
AcDbEntity
  8
0
  6
Continuous
 62
     7
370
    15
100
AcDbCircle
 10
-524.2353062927
 20
-76.1730982424
 30
0.0
 40
120.0
100
AcDbArc
 50
273.4163951255
 51
279.2305740408
  0
LINE
  5
2D9
330
1F
100
AcDbEntity
  8
0
  6
Continuous
 62
     7
370
    15
100
AcDbLine
 10
1895.1815394273
 20
-194.4217834973
 30
0.0
 11
1895.1815394273
 21
-193.0917840803
 31
0.0
  0
LINE
  5
2DA
330
1F
100
AcDbEntity
  8
0
  6
Continuous
 62
     7
370
    15
100
AcDbLine
 10
1865.1815680375
 20
-193.0917840803
 30
0.0
 11
1865.1815680375
 21
-194.4217834973
 31
0.0
  0
ARC
  5
2DB
330
1F
100
AcDbEntity
  8
0
  6
Continuous
 62
     7
370
    15
100
AcDbCircle
 10
1865.3815623155
 20
-194.4217851733
 30
0.0
 40
0.2000000000000455
100
AcDbArc
 50
180.0
 51
260.7694259591
  0
ARC
  5
2DC
330
1F
100
AcDbEntity
  8
0
  6
Continuous
 62
     7
370
    15
100
AcDbCircle
 10
1894.9815623155
 20
-194.4217851733
 30
0.0
 40
0.1999999999999948
100
AcDbArc
 50
279.2305740408
 51
0.0
  0
ARC
  5
2DD
330
1F
100
AcDbEntity
  8
0
  6
Continuous
 62
     7
370
    15
100
AcDbCircle
 10
1884.5984309237
 20
-76.1730982424
 30
0.0
 40
120.0
100
AcDbArc
 50
260.7694259592
 51
266.5831083863
  0
ARC
  5
2DE
330
1F
100
AcDbEntity
  8
0
  6
Continuous
 62
     7
370
    15
100
AcDbCircle
 10
1875.7646937073
 20
-76.1730982424
 30
0.0
 40
120.0
100
AcDbArc
 50
273.4163951255
 51
279.2305740408
  0
LINE
  5
2DF
330
1F
100
AcDbEntity
  8
0
  6
Continuous
 62
     7
370
    15
100
AcDbLine
 10
1860.1814535966
 20
-185.091782769
 30
0.0
 11
1860.1814535966
 21
-193.0917840803
 31
0.0
  0
LINE
  5
2E0
330
1F
100
AcDbEntity
  8
0
  6
Continuous
 62
     7
370
    15
100
AcDbLine
 10
1900.1816538682
 20
-193.0917840803
 30
0.0
 11
1900.1816538682
 21
-185.091782769
 31
0.0
  0
LINE
  5
2E1
330
1F
100
AcDbEntity
  8
0
  6
Continuous
 62
     7
370
    15
100
AcDbLine
 10
-539.8184406051
 20
-185.091782769
 30
0.0
 11
-539.8184406051
 21
-193.0917840803
 31
0.0
  0
LINE
  5
2E2
330
1F
100
AcDbEntity
  8
0
  6
Continuous
 62
     7
370
    15
100
AcDbLine
 10
-499.8184377739
 20
-193.0917840803
 30
0.0
 11
-499.8184377739
 21
-185.091782769
 31
0.0
  0
LINE
  5
2E3
330
1F
100
AcDbEntity
  8
0
  6
Continuous
 62
     7
370
    15
100
AcDbLine
 10
-503.8184384296
 20
-154.2917843328
 30
0.0
 11
-505.6184390971
 21
-152.4917841309
 31
0.0
  0
LINE
  5
2E4
330
1F
100
AcDbEntity
  8
0
  6
Continuous
 62
     7
370
    15
100
AcDbLine
 10
-534.0184392819
 20
-152.4917841309
 30
0.0
 11
-535.8184399495
 21
-154.2917843328
 31
0.0
  0
LINE
  5
2E5
330
1F
100
AcDbEntity
  8
0
  6
Continuous
 62
     7
370
    15
100
AcDbLine
 10
-535.8184399495
 20
-180.9917841458
 30
0.0
 11
-535.8184399495
 21
-185.091782769
 31
0.0
  0
LINE
  5
2E6
330
1F
100
AcDbEntity
  8
0
  6
Continuous
 62
     7
370
    15
100
AcDbLine
 10
-535.8184399495
 20
-154.2917843328
 30
0.0
 11
-535.8184399495
 21
-155.8917839432
 31
0.0
  0
LINE
  5
2E7
330
1F
100
AcDbEntity
  8
0
  6
Continuous
 62
     7
370
    15
100
AcDbLine
 10
-503.8184384296
 20
-155.8917839432
 30
0.0
 11
-503.8184384296
 21
-154.2917843328
 31
0.0
  0
LINE
  5
2E8
330
1F
100
AcDbEntity
  8
0
  6
Continuous
 62
     7
370
    15
100
AcDbLine
 10
-503.8184384296
 20
-185.091782769
 30
0.0
 11
-503.8184384296
 21
-180.9917841458
 31
0.0
  0
LINE
  5
2E9
330
1F
100
AcDbEntity
  8
0
  6
Continuous
 62
     7
370
    15
100
AcDbLine
 10
1896.1814669481
 20
-154.2917843328
 30
0.0
 11
1894.3816450944
 21
-152.4917841309
 31
0.0
  0
LINE
  5
2EA
330
1F
100
AcDbEntity
  8
0
  6
Continuous
 62
     7
370
    15
100
AcDbLine
 10
1865.9814623704
 20
-152.4917841309
 30
0.0
 11
1864.1816405168
 21
-154.2917843328
 31
0.0
  0
LINE
  5
2EB
330
1F
100
AcDbEntity
  8
0
  6
Continuous
 62
     7
370
    15
100
AcDbLine
 10
1864.1816405168
 20
-180.9917841458
 30
0.0
 11
1864.1816405168
 21
-185.091782769
 31
0.0
  0
LINE
  5
2EC
330
1F
100
AcDbEntity
  8
0
  6
Continuous
 62
     7
370
    15
100
AcDbLine
 10
1864.1816405168
 20
-154.2917843328
 30
0.0
 11
1864.1816405168
 21
-155.8917839432
 31
0.0
  0
LINE
  5
2ED
330
1F
100
AcDbEntity
  8
0
  6
Continuous
 62
     7
370
    15
100
AcDbLine
 10
1896.1814669481
 20
-155.8917839432
 30
0.0
 11
1896.1814669481
 21
-154.2917843328
 31
0.0
  0
LINE
  5
2EE
330
1F
100
AcDbEntity
  8
0
  6
Continuous
 62
     7
370
    15
100
AcDbLine
 10
1896.1814669481
 20
-185.091782769
 30
0.0
 11
1896.1814669481
 21
-180.9917841458
 31
0.0
  0
LINE
  5
2EF
330
1F
100
AcDbEntity
  8
0
  6
Continuous
 62
     7
370
    15
100
AcDbLine
 10
1830.1814822068
 20
-117.9917849952
 30
0.0
 11
1827.181461226
 21
-107.9917852187
 31
0.0
  0
LINE
  5
2F0
330
1F
100
AcDbEntity
  8
0
  6
Continuous
 62
     7
370
    15
100
AcDbLine
 10
1825.1816061845
 20
-107.9917852187
 30
0.0
 11
1822.1815852037
 21
-117.9917849952
 31
0.0
  0
LINE
  5
2F1
330
1F
100
AcDbEntity
  8
0
  6
Continuous
 62
     7
370
    15
100
AcDbLine
 10
1822.1815852037
 20
-117.9917849952
 30
0.0
 11
1822.1815852037
 21
-147.9917843246
 31
0.0
  0
LINE
  5
2F2
330
1F
100
AcDbEntity
  8
0
  6
Continuous
 62
     7
370
    15
100
AcDbLine
 10
1830.1814822068
 20
-147.9917843246
 30
0.0
 11
1830.1814822068
 21
-117.9917849952
 31
0.0
  0
LINE
  5
2F3
330
1F
100
AcDbEntity
  8
0
  6
Continuous
 62
     7
370
    15
100
AcDbLine
 10
-449.8184374945
 20
-117.9917849952
 30
0.0
 11
-452.818437637
 21
-107.9917852187
 31
0.0
  0
LINE
  5
2F4
330
1F
100
AcDbEntity
  8
0
  6
Continuous
 62
     7
370
    15
100
AcDbLine
 10
-454.818437732
 20
-107.9917852187
 30
0.0
 11
-457.8184378745
 21
-117.9917849952
 31
0.0
  0
LINE
  5
2F5
330
1F
100
AcDbEntity
  8
0
  6
Continuous
 62
     7
370
    15
100
AcDbLine
 10
-457.8184378745
 20
-117.9917849952
 30
0.0
 11
-457.8184378745
 21
-147.9917843246
 31
0.0
  0
LINE
  5
2F6
330
1F
100
AcDbEntity
  8
0
  6
Continuous
 62
     7
370
    15
100
AcDbLine
 10
-449.8184374945
 20
-147.9917843246
 30
0.0
 11
-449.8184374945
 21
-117.9917849952
 31
0.0
  0
LINE
  5
2F7
330
1F
100
AcDbEntity
  8
0
  6
Continuous
 62
     7
370
    15
100
AcDbLine
 10
690.1816157213
 20
-117.9917849952
 30
0.0
 11
687.1815947404
 21
-107.9917852187
 31
0.0
  0
LINE
  5
2F8
330
1F
100
AcDbEntity
  8
0
  6
Continuous
 62
     7
370
    15
100
AcDbLine
 10
685.1816204896
 20
-107.9917852187
 30
0.0
 11
682.1815995088
 21
-117.9917849952
 31
0.0
  0
LINE
  5
2F9
330
1F
100
AcDbEntity
  8
0
  6
Continuous
 62
     7
370
    15
100
AcDbLine
 10
682.1815995088
 20
-117.9917849952
 30
0.0
 11
682.1815995088
 21
-147.9917843246
 31
0.0
  0
LINE
  5
2FA
330
1F
100
AcDbEntity
  8
0
  6
Continuous
 62
     7
370
    15
100
AcDbLine
 10
690.1816157213
 20
-147.9917843246
 30
0.0
 11
690.1816157213
 21
-117.9917849952
 31
0.0
  0
LINE
  5
2FB
330
1F
100
AcDbEntity
  8
0
  6
Continuous
 62
     7
370
    15
100
AcDbLine
 10
1260.1815489641
 20
-117.9917849952
 30
0.0
 11
1257.1815279832
 21
-107.9917852187
 31
0.0
  0
LINE
  5
2FC
330
1F
100
AcDbEntity
  8
0
  6
Continuous
 62
     7
370
    15
100
AcDbLine
 10
1255.1815537324
 20
-107.9917852187
 30
0.0
 11
1252.1815327516
 21
-117.9917849952
 31
0.0
  0
LINE
  5
2FD
330
1F
100
AcDbEntity
  8
0
  6
Continuous
 62
     7
370
    15
100
AcDbLine
 10
1252.1815327516
 20
-117.9917849952
 30
0.0
 11
1252.1815327516
 21
-147.9917843246
 31
0.0
  0
LINE
  5
2FE
330
1F
100
AcDbEntity
  8
0
  6
Continuous
 62
     7
370
    15
100
AcDbLine
 10
1260.1815489641
 20
-147.9917843246
 30
0.0
 11
1260.1815489641
 21
-117.9917849952
 31
0.0
  0
LINE
  5
2FF
330
1F
100
AcDbEntity
  8
0
  6
Continuous
 62
     7
370
    15
100
AcDbLine
 10
120.1815632692
 20
-117.9917849952
 30
0.0
 11
117.1815422883
 21
-107.9917852187
 31
0.0
  0
LINE
  5
300
330
1F
100
AcDbEntity
  8
0
  6
Continuous
 62
     7
370
    15
100
AcDbLine
 10
115.1815680375
 20
-107.9917852187
 30
0.0
 11
112.1815470567
 21
-117.9917849952
 31
0.0
  0
LINE
  5
301
330
1F
100
AcDbEntity
  8
0
  6
Continuous
 62
     7
370
    15
100
AcDbLine
 10
112.1815470567
 20
-117.9917849952
 30
0.0
 11
112.1815470567
 21
-147.9917843246
 31
0.0
  0
LINE
  5
302
330
1F
100
AcDbEntity
  8
0
  6
Continuous
 62
     7
370
    15
100
AcDbLine
 10
120.1815632692
 20
-147.9917843246
 30
0.0
 11
120.1815632692
 21
-117.9917849952
 31
0.0
  0
LINE
  5
303
330
1F
100
AcDbEntity
  8
0
  6
Continuous
 62
     7
370
    15
100
AcDbLine
 10
1818.6816004625
 20
-151.9917845146
 30
0.0
 11
1818.6816004625
 21
-155.9917847046
 31
0.0
  0
LINE
  5
304
330
1F
100
AcDbEntity
  8
0
  6
Continuous
 62
     7
370
    15
100
AcDbLine
 10
1833.6814669481
 20
-155.9917847046
 30
0.0
 11
1833.6814669481
 21
-151.9917845146
 31
0.0
  0
LINE
  5
305
330
1F
100
AcDbEntity
  8
0
  6
Continuous
 62
     7
370
    15
100
AcDbLine
 10
-461.3184375169
 20
-151.9917845146
 30
0.0
 11
-461.3184375169
 21
-155.9917847046
 31
0.0
  0
LINE
  5
306
330
1F
100
AcDbEntity
  8
0
  6
Continuous
 62
     7
370
    15
100
AcDbLine
 10
-446.3184378521
 20
-155.9917847046
 30
0.0
 11
-446.3184378521
 21
-151.9917845146
 31
0.0
  0
LINE
  5
307
330
1F
100
AcDbEntity
  8
0
  6
Continuous
 62
     7
370
    15
100
AcDbLine
 10
108.6815623155
 20
-151.9917845146
 30
0.0
 11
108.6815623155
 21
-155.9917847046
 31
0.0
  0
LINE
  5
308
330
1F
100
AcDbEntity
  8
0
  6
Continuous
 62
     7
370
    15
100
AcDbLine
 10
123.6815480104
 20
-155.9917847046
 30
0.0
 11
123.6815480104
 21
-151.9917845146
 31
0.0
  0
LINE
  5
309
330
1F
100
AcDbEntity
  8
0
  6
Continuous
 62
     7
370
    15
100
AcDbLine
 10
1248.6815480104
 20
-151.9917845146
 30
0.0
 11
1248.6815480104
 21
-155.9917847046
 31
0.0
  0
LINE
  5
30A
330
1F
100
AcDbEntity
  8
0
  6
Continuous
 62
     7
370
    15
100
AcDbLine
 10
1263.6815337053
 20
-155.9917847046
 30
0.0
 11
1263.6815337053
 21
-151.9917845146
 31
0.0
  0
LINE
  5
30B
330
1F
100
AcDbEntity
  8
0
  6
Continuous
 62
     7
370
    15
100
AcDbLine
 10
678.6816147676
 20
-151.9917845146
 30
0.0
 11
678.6816147676
 21
-155.9917847046
 31
0.0
  0
LINE
  5
30C
330
1F
100
AcDbEntity
  8
0
  6
Continuous
 62
     7
370
    15
100
AcDbLine
 10
693.6816004625
 20
-155.9917847046
 30
0.0
 11
693.6816004625
 21
-151.9917845146
 31
0.0
  0
LINE
  5
30D
330
1F
100
AcDbEntity
  8
0
  6
Continuous
 62
     7
370
    15
100
AcDbLine
 10
-483.818437014
 20
-147.9917843246
 30
0.0
 11
-483.818437014
 21
-149.9917844196
 31
0.0
  0
LINE
  5
30E
330
1F
100
AcDbEntity
  8
0
  6
Continuous
 62
     7
370
    15
100
AcDbLine
 10
-423.8184383551
 20
-149.9917844196
 30
0.0
 11
-423.8184383551
 21
-147.9917843246
 31
0.0
  0
LINE
  5
30F
330
1F
100
AcDbEntity
  8
0
  6
Continuous
 62
     7
370
    15
100
AcDbLine
 10
-483.818437014
 20
-149.9917844196
 30
0.0
 11
-468.8184373492
 21
-151.9917845146
 31
0.0
  0
LINE
  5
310
330
1F
100
AcDbEntity
  8
0
  6
Continuous
 62
     7
370
    15
100
AcDbLine
 10
-438.8184380198
 20
-151.9917845146
 30
0.0
 11
-423.8184383551
 21
-149.9917844196
 31
0.0
  0
LINE
  5
311
330
1F
100
AcDbEntity
  8
0
  6
Continuous
 62
     7
370
    15
100
AcDbLine
 10
656.1815766206
 20
-147.9917843246
 30
0.0
 11
656.1815766206
 21
-149.9917844196
 31
0.0
  0
LINE
  5
312
330
1F
100
AcDbEntity
  8
0
  6
Continuous
 62
     7
370
    15
100
AcDbLine
 10
716.1815194001
 20
-149.9917844196
 30
0.0
 11
716.1815194001
 21
-147.9917843246
 31
0.0
  0
LINE
  5
313
330
1F
100
AcDbEntity
  8
0
  6
Continuous
 62
     7
370
    15
100
AcDbLine
 10
656.1815766206
 20
-149.9917844196
 30
0.0
 11
671.1815623155
 21
-151.9917845146
 31
0.0
  0
LINE
  5
314
330
1F
100
AcDbEntity
  8
0
  6
Continuous
 62
     7
370
    15
100
AcDbLine
 10
701.1815337053
 20
-151.9917845146
 30
0.0
 11
716.1815194001
 21
-149.9917844196
 31
0.0
  0
LINE
  5
315
330
1F
100
AcDbEntity
  8
0
  6
Continuous
 62
     7
370
    15
100
AcDbLine
 10
1796.1815623155
 20
-147.9917843246
 30
0.0
 11
1796.1815623155
 21
-149.9917844196
 31
0.0
  0
LINE
  5
316
330
1F
100
AcDbEntity
  8
0
  6
Continuous
 62
     7
370
    15
100
AcDbLine
 10
1856.181505095
 20
-149.9917844196
 30
0.0
 11
1856.181505095
 21
-147.9917843246
 31
0.0
  0
LINE
  5
317
330
1F
100
AcDbEntity
  8
0
  6
Continuous
 62
     7
370
    15
100
AcDbLine
 10
1796.1815623155
 20
-149.9917844196
 30
0.0
 11
1811.1816672197
 21
-151.9917845146
 31
0.0
  0
LINE
  5
318
330
1F
100
AcDbEntity
  8
0
  6
Continuous
 62
     7
370
    15
100
AcDbLine
 10
1841.1816386094
 20
-151.9917845146
 30
0.0
 11
1856.181505095
 21
-149.9917844196
 31
0.0
  0
LINE
  5
319
330
1F
100
AcDbEntity
  8
0
  6
Continuous
 62
     7
370
    15
100
AcDbLine
 10
86.1815837732
 20
-147.9917843246
 30
0.0
 11
86.1815837732
 21
-149.9917844196
 31
0.0
  0
LINE
  5
31A
330
1F
100
AcDbEntity
  8
0
  6
Continuous
 62
     7
370
    15
100
AcDbLine
 10
146.1815861573
 20
-149.9917844196
 30
0.0
 11
146.1815861573
 21
-147.9917843246
 31
0.0
  0
LINE
  5
31B
330
1F
100
AcDbEntity
  8
0
  6
Continuous
 62
     7
370
    15
100
AcDbLine
 10
86.1815837732
 20
-149.9917844196
 30
0.0
 11
101.181569468
 21
-151.9917845146
 31
0.0
  0
LINE
  5
31C
330
1F
100
AcDbEntity
  8
0
  6
Continuous
 62
     7
370
    15
100
AcDbLine
 10
131.1815408578
 20
-151.9917845146
 30
0.0
 11
146.1815861573
 21
-149.9917844196
 31
0.0
  0
LINE
  5
31D
330
1F
100
AcDbEntity
  8
0
  6
Continuous
 62
     7
370
    15
100
AcDbLine
 10
1226.1815098634
 20
-147.9917843246
 30
0.0
 11
1226.1815098634
 21
-149.9917844196
 31
0.0
  0
LINE
  5
31E
330
1F
100
AcDbEntity
  8
0
  6
Continuous
 62
     7
370
    15
100
AcDbLine
 10
1286.1815718522
 20
-149.9917844196
 30
0.0
 11
1286.1815718522
 21
-147.9917843246
 31
0.0
  0
LINE
  5
31F
330
1F
100
AcDbEntity
  8
0
  6
Continuous
 62
     7
370
    15
100
AcDbLine
 10
1226.1815098634
 20
-149.9917844196
 30
0.0
 11
1241.1816147676
 21
-151.9917845146
 31
0.0
  0
LINE
  5
320
330
1F
100
AcDbEntity
  8
0
  6
Continuous
 62
     7
370
    15
100
AcDbLine
 10
1271.1815861573
 20
-151.9917845146
 30
0.0
 11
1286.1815718522
 21
-149.9917844196
 31
0.0
  0
LINE
  5
321
330
1F
100
AcDbEntity
  8
0
  6
Continuous
 62
     7
370
    15
100
AcDbLine
 10
-583.8184329161
 20
-155.9917847046
 30
0.0
 11
-583.8184329161
 21
-180.9917841458
 31
0.0
  0
LINE
  5
322
330
1F
100
AcDbEntity
  8
0
  6
Continuous
 62
     7
370
    15
100
AcDbLine
 10
1956.1816481462
 20
-155.9917847046
 30
0.0
 11
1956.1816481462
 21
-180.9917841458
 31
0.0
  0
SPLINE
  5
323
330
1F
100
AcDbEntity
  8
0
  6
Continuous
 62
     7
370
    15
100
AcDbSpline
210
0.0
220
0.0
230
1.0
 70
     8
 71
     3
 72
    18
 73
    14
 74
     0
 42
0.000000001
 43
0.00000001
 40
0.0
 40
0.0
 40
0.0
 40
0.0
 40
0.0951121829208559
 40
0.1899371624442236
 40
0.2921475850014545
 40
0.4069226841563765
 40
0.4935824101184735
 40
0.5803866440982026
 40
0.6660819176277321
 40
0.766985233424147
 40
0.8822045587631551
 40
0.9901196300024813
 40
1.0
 40
1.0
 40
1.0
 40
1.0
 10
678.6315468659678
 20
-180.9917841458196
 30
0.0
 10
678.7015040646447
 20
-180.948888793998
 30
0.0
 10
678.8412072172922
 20
-180.8632276183545
 30
0.0
 10
679.9141567424199
 20
-180.2442899647114
 30
0.0
 10
681.5685733478884
 20
-179.4226963260855
 30
0.0
 10
683.696676029897
 20
-178.673453890941
 30
0.0
 10
686.0218948382517
 20
-178.3767718084446
 30
0.0
 10
688.1375364950104
 20
-178.5793234256114
 30
0.0
 10
690.1292269658163
 20
-179.1590424744458
 30
0.0
 10
691.9611545659832
 20
-179.9795577890302
 30
0.0
 10
693.2638250380631
 20
-180.7064472387409
 30
0.0
 10
693.8332423097646
 20
-181.0526870155128
 30
0.0
 10
693.7099430785296
 20
-180.9788722448632
 30
0.0
 10
693.6996010651866
 20
-180.9726808571691
 30
0.0
  0
SPLINE
  5
324
330
1F
100
AcDbEntity
  8
0
  6
Continuous
 62
     7
370
    15
100
AcDbSpline
210
0.0
220
0.0
230
1.0
 70
     8
 71
     3
 72
    11
 73
     7
 74
     0
 42
0.000000001
 43
0.00000001
 40
0.0
 40
0.0
 40
0.0
 40
0.0
 40
0.2620843973058956
 40
0.5233766327918986
 40
0.8050139083139332
 40
1.0
 40
1.0
 40
1.0
 40
1.0
 10
-461.3684378975949
 20
-180.9917841458196
 30
0.0
 10
-461.2993158891569
 20
-180.9483082840208
 30
0.0
 10
-461.1612807966448
 20
-180.8614879681612
 30
0.0
 10
-460.0753702046861
 20
-180.25145588693
 30
0.0
 10
-458.7019722580715
 20
-179.5132953474925
 30
0.0
 10
-457.4582127707934
 20
-179.1431924879576
 30
0.0
 10
-456.9493921419552
 20
-178.991783817994
 30
0.0
  0
SPLINE
  5
325
330
1F
100
AcDbEntity
  8
0
  6
Continuous
 62
     7
370
    15
100
AcDbSpline
210
0.0
220
0.0
230
1.0
 70
     8
 71
     3
 72
    14
 73
    10
 74
     0
 42
0.000000001
 43
0.00000001
 40
0.0
 40
0.0
 40
0.0
 40
0.0
 40
0.0654119400514883
 40
0.2256039447372495
 40
0.3837594400745045
 40
0.5699706815520996
 40
0.7826098892029133
 40
0.9817654962406412
 40
0.9999999999999999
 40
0.9999999999999999
 40
0.9999999999999999
 40
0.9999999999999999
 10
-454.8184377320057
 20
-178.5546340399856
 30
0.0
 10
-454.5385225257617
 20
-178.5139617241797
 30
0.0
 10
-453.5731028383025
 20
-178.373684048878
 30
0.0
 10
-451.8578932002006
 20
-178.5944416353803
 30
0.0
 10
-449.8722058466441
 20
-179.1542046593531
 30
0.0
 10
-448.0383936284371
 20
-179.9811856301261
 30
0.0
 10
-446.7362999796332
 20
-180.7059913116764
 30
0.0
 10
-446.1665435491104
 20
-181.0526929355495
 30
0.0
 10
-446.2900376846745
 20
-180.9788728271666
 30
0.0
 10
-446.3003962712309
 20
-180.9726808571691
 30
0.0
  0
SPLINE
  5
326
330
1F
100
AcDbEntity
  8
0
  6
Continuous
 62
     7
370
    15
100
AcDbSpline
210
0.0
220
0.0
230
1.0
 70
     8
 71
     3
 72
    18
 73
    14
 74
     0
 42
0.000000001
 43
0.00000001
 40
0.0
 40
0.0
 40
0.0
 40
0.0
 40
0.0951122403267379
 40
0.1899372770826435
 40
0.2921445470141603
 40
0.406923913198417
 40
0.4935836914648338
 40
0.5803831174865826
 40
0.6660828439975827
 40
0.7669825938815656
 40
0.8822044876665717
 40
0.9901196240390879
 40
1.0
 40
1.0
 40
1.0
 40
1.0
 10
1248.631599318055
 20
-180.9917841458196
 30
0.0
 10
1248.701554654382
 20
-180.9488879253332
 30
0.0
 10
1248.841254087953
 20
-180.8632250149829
 30
0.0
 10
1249.914220358039
 20
-180.2443074878003
 30
0.0
 10
1251.568512341113
 20
-179.4226571972596
 30
0.0
 10
1253.696709095396
 20
-178.6734729836909
 30
0.0
 10
1256.021909555278
 20
-178.3767642213251
 30
0.0
 10
1258.13752621558
 20
-178.5793530107127
 30
0.0
 10
1260.129258547097
 20
-179.1590021296861
 30
0.0
 10
1261.961063349039
 20
-179.9795936354163
 30
0.0
 10
1263.263909286642
 20
-180.706432470185
 30
0.0
 10
1263.833294154932
 20
-181.0526871925372
 30
0.0
 10
1263.709995483649
 20
-180.9788722585625
 30
0.0
 10
1263.699653517274
 20
-180.9726808571691
 30
0.0
  0
SPLINE
  5
327
330
1F
100
AcDbEntity
  8
0
  6
Continuous
 62
     7
370
    15
100
AcDbSpline
210
0.0
220
0.0
230
1.0
 70
     8
 71
     3
 72
    18
 73
    14
 74
     0
 42
0.000000001
 43
0.00000001
 40
0.0
 40
0.0
 40
0.0
 40
0.0
 40
0.095112274902994
 40
0.1899394397415204
 40
0.2921467468285575
 40
0.4069261547386824
 40
0.4935811459206378
 40
0.5803854638479629
 40
0.6660852215134779
 40
0.766985008077657
 40
0.8822044448442408
 40
0.9901196204472641
 40
1.0
 40
1.0
 40
1.0
 40
1.0
 10
1818.631532560853
 20
-180.9917841458196
 30
0.0
 10
1818.701477461898
 20
-180.9488862636862
 30
0.0
 10
1818.841157596044
 20
-180.8632190907918
 30
0.0
 10
1819.914300990636
 20
-180.2443172320835
 30
0.0
 10
1821.568552020665
 20
-179.4226554800858
 30
0.0
 10
1823.696731625291
 20
-178.6734866852632
 30
0.0
 10
1826.021917151516
 20
-178.3767618866841
 30
0.0
 10
1828.137545466879
 20
-178.5793429235339
 30
0.0
 10
1830.129304430017
 20
-179.159003030097
 30
0.0
 10
1831.961131009775
 20
-179.9795818821805
 30
0.0
 10
1833.263817356487
 20
-180.7064428036315
 30
0.0
 10
1833.833227898592
 20
-181.0526870865307
 30
0.0
 10
1833.709928765207
 20
-180.978872250359
 30
0.0
 10
1833.699586760071
 20
-180.9726808571691
 30
0.0
  0
SPLINE
  5
328
330
1F
100
AcDbEntity
  8
0
  6
Continuous
 62
     7
370
    15
100
AcDbSpline
210
0.0
220
0.0
230
1.0
 70
     8
 71
     3
 72
    18
 73
    14
 74
     0
 42
0.000000001
 43
0.00000001
 40
0.0
 40
0.0
 40
0.0
 40
0.0
 40
0.0951124945570056
 40
0.1899363667859407
 40
0.292145116884103
 40
0.4069243404776373
 40
0.4935816017949182
 40
0.5803833501564949
 40
0.666082970202489
 40
0.7669825947384349
 40
0.8822043453829651
 40
0.9901193476922104
 40
0.9999999999999999
 40
0.9999999999999999
 40
0.9999999999999999
 40
0.9999999999999999
 10
108.6315540185253
 20
-180.9917841458196
 30
0.0
 10
108.7015402134588
 20
-180.9488893140396
 30
0.0
 10
108.8413002276694
 20
-180.8632298164087
 30
0.0
 10
109.914151861594
 20
-180.2442950844298
 30
0.0
 10
111.5685382009533
 20
-179.422666752325
 30
0.0
 10
113.6967024697671
 20
-178.6734785189138
 30
0.0
 10
116.0219027396395
 20
-178.3767633354273
 30
0.0
 10
118.1375239670913
 20
-178.5793480055377
 30
0.0
 10
120.1292680253783
 20
-179.1590021279927
 30
0.0
 10
121.9611006942904
 20
-179.9795934188904
 30
0.0
 10
123.2638271578163
 20
-180.706433442327
 30
0.0
 10
123.8335150444451
 20
-181.0526855360398
 30
0.0
 10
123.7099710393836
 20
-180.9788722832367
 30
0.0
 10
123.6996082177439
 20
-180.9726808571691
 30
0.0
  0
LINE
  5
329
330
1F
100
AcDbEntity
  8
0
  6
Continuous
 62
     7
370
    15
100
AcDbLine
 10
1819.7797564378
 20
-180.9917841458
 30
0.0
 11
1833.631637465
 21
-180.9917841458
 31
0.0
  0
LINE
  5
32A
330
1F
100
AcDbEntity
  8
0
  6
Continuous
 62
     7
370
    15
100
AcDbLine
 10
1818.7316683641
 20
-180.9917841458
 30
0.0
 11
1819.7797564378
 21
-180.9917841458
 31
0.0
  0
LINE
  5
32B
330
1F
100
AcDbEntity
  8
0
  6
Continuous
 62
     7
370
    15
100
AcDbLine
 10
1820.6390169969
 20
-181.9917861724
 30
0.0
 11
1819.7315958848
 21
-181.9917861724
 31
0.0
  0
LINE
  5
32C
330
1F
100
AcDbEntity
  8
0
  6
Continuous
 62
     7
370
    15
100
AcDbLine
 10
1832.6314715257
 20
-181.9917861724
 30
0.0
 11
1820.6390169969
 21
-181.9917861724
 31
0.0
  0
LINE
  5
32D
330
1F
100
AcDbEntity
  8
0
  6
Continuous
 62
     7
370
    15
100
AcDbLine
 10
-460.2202517392
 20
-180.9917841458
 30
0.0
 11
-446.3684377672
 21
-180.9917841458
 31
0.0
  0
LINE
  5
32E
330
1F
100
AcDbEntity
  8
0
  6
Continuous
 62
     7
370
    15
100
AcDbLine
 10
-461.2684376018
 20
-180.9917841458
 30
0.0
 11
-460.2202517392
 21
-180.9917841458
 31
0.0
  0
LINE
  5
32F
330
1F
100
AcDbEntity
  8
0
  6
Continuous
 62
     7
370
    15
100
AcDbLine
 10
-459.3609478736
 20
-181.9917861724
 30
0.0
 11
-460.2684379036
 21
-181.9917861724
 31
0.0
  0
LINE
  5
330
330
1F
100
AcDbEntity
  8
0
  6
Continuous
 62
     7
370
    15
100
AcDbLine
 10
-447.3684374655
 20
-181.9917861724
 30
0.0
 11
-459.3609478736
 21
-181.9917861724
 31
0.0
  0
LINE
  5
331
330
1F
100
AcDbEntity
  8
0
  6
Continuous
 62
     7
370
    15
100
AcDbLine
 10
1249.7797039857
 20
-180.9917841458
 30
0.0
 11
1263.6315850129
 21
-180.9917841458
 31
0.0
  0
LINE
  5
332
330
1F
100
AcDbEntity
  8
0
  6
Continuous
 62
     7
370
    15
100
AcDbLine
 10
1248.731615912
 20
-180.9917841458
 30
0.0
 11
1249.7797039857
 21
-180.9917841458
 31
0.0
  0
LINE
  5
333
330
1F
100
AcDbEntity
  8
0
  6
Continuous
 62
     7
370
    15
100
AcDbLine
 10
1250.6390837541
 20
-181.9917861724
 30
0.0
 11
1249.7315434327
 21
-181.9917861724
 31
0.0
  0
LINE
  5
334
330
1F
100
AcDbEntity
  8
0
  6
Continuous
 62
     7
370
    15
100
AcDbLine
 10
1262.6315382829
 20
-181.9917861724
 30
0.0
 11
1250.6390837541
 21
-181.9917861724
 31
0.0
  0
LINE
  5
335
330
1F
100
AcDbEntity
  8
0
  6
Continuous
 62
     7
370
    15
100
AcDbLine
 10
679.7797707429
 20
-180.9917841458
 30
0.0
 11
693.6315325609
 21
-180.9917841458
 31
0.0
  0
LINE
  5
336
330
1F
100
AcDbEntity
  8
0
  6
Continuous
 62
     7
370
    15
100
AcDbLine
 10
678.7315634599
 20
-180.9917841458
 30
0.0
 11
679.7797707429
 21
-180.9917841458
 31
0.0
  0
LINE
  5
337
330
1F
100
AcDbEntity
  8
0
  6
Continuous
 62
     7
370
    15
100
AcDbLine
 10
680.639031302
 20
-181.9917861724
 30
0.0
 11
679.7316101899
 21
-181.9917861724
 31
0.0
  0
LINE
  5
338
330
1F
100
AcDbEntity
  8
0
  6
Continuous
 62
     7
370
    15
100
AcDbLine
 10
692.6316050401
 20
-181.9917861724
 30
0.0
 11
680.639031302
 21
-181.9917861724
 31
0.0
  0
LINE
  5
339
330
1F
100
AcDbEntity
  8
0
  6
Continuous
 62
     7
370
    15
100
AcDbLine
 10
109.7797778955
 20
-180.9917841458
 30
0.0
 11
123.6315397134
 21
-180.9917841458
 31
0.0
  0
LINE
  5
33A
330
1F
100
AcDbEntity
  8
0
  6
Continuous
 62
     7
370
    15
100
AcDbLine
 10
108.7315706125
 20
-180.9917841458
 30
0.0
 11
109.7797778955
 21
-180.9917841458
 31
0.0
  0
LINE
  5
33B
330
1F
100
AcDbEntity
  8
0
  6
Continuous
 62
     7
370
    15
100
AcDbLine
 10
110.6390384546
 20
-181.9917861724
 30
0.0
 11
109.7315577379
 21
-181.9917861724
 31
0.0
  0
LINE
  5
33C
330
1F
100
AcDbEntity
  8
0
  6
Continuous
 62
     7
370
    15
100
AcDbLine
 10
122.631552588
 20
-181.9917861724
 30
0.0
 11
110.6390384546
 21
-181.9917861724
 31
0.0
  0
LINE
  5
33D
330
1F
100
AcDbEntity
  8
0
  6
Continuous
 62
     7
370
    15
100
AcDbLine
 10
-469.0184379408
 20
-157.4917840192
 30
0.0
 11
-498.6184360871
 21
-157.4917840192
 31
0.0
  0
LINE
  5
33E
330
1F
100
AcDbEntity
  8
0
  6
Continuous
 62
     7
370
    15
100
AcDbLine
 10
-486.3184364924
 20
-154.6329385021
 30
0.0
 11
-483.818437014
 21
-154.6329385021
 31
0.0
  0
LINE
  5
33F
330
1F
100
AcDbEntity
  8
0
  6
Continuous
 62
     7
370
    15
100
AcDbLine
 10
-483.818437014
 20
-154.6329385021
 30
0.0
 11
-481.3184375355
 21
-154.6329385021
 31
0.0
  0
LINE
  5
340
330
1F
100
AcDbEntity
  8
0
  6
Continuous
 62
     7
370
    15
100
AcDbLine
 10
-481.3184375355
 20
-154.6329385021
 30
0.0
 11
-481.3184375355
 21
-154.6099893169
 31
0.0
  0
SPLINE
  5
341
330
1F
100
AcDbEntity
  8
0
  6
Continuous
 62
     7
370
    15
100
AcDbSpline
210
0.0
220
0.0
230
1.0
 70
    24
 71
     3
 72
     9
 73
     5
 74
     0
 42
0.000000001
 43
0.00000001
 40
0.0
 40
0.0
 40
0.0
 40
0.0
 40
0.0011935578274655
 40
1.0
 40
1.0
 40
1.0
 40
1.0
 10
-486.3184364924154
 20
-154.6100098059947
 30
0.0
 10
-486.3184364924154
 20
-154.610000637067
 30
0.0
 10
-486.3184364924161
 20
-154.6023186233364
 30
0.0
 10
-486.3184364924157
 20
-154.6176377048332
 30
0.0
 10
-486.3184364924154
 20
-154.6329385021204
 30
0.0
  0
LINE
  5
342
330
1F
100
AcDbEntity
  8
0
  6
Continuous
 62
     7
370
    15
100
AcDbLine
 10
230.9815911165
 20
-157.4917840192
 30
0.0
 11
201.3815668931
 21
-157.4917840192
 31
0.0
  0
LINE
  5
343
330
1F
100
AcDbEntity
  8
0
  6
Continuous
 62
     7
370
    15
100
AcDbLine
 10
213.681581389
 20
-154.6329385021
 30
0.0
 11
216.1815790048
 21
-154.6329385021
 31
0.0
  0
LINE
  5
344
330
1F
100
AcDbEntity
  8
0
  6
Continuous
 62
     7
370
    15
100
AcDbLine
 10
216.1815790048
 20
-154.6329385021
 30
0.0
 11
218.6815766206
 21
-154.6329385021
 31
0.0
  0
LINE
  5
345
330
1F
100
AcDbEntity
  8
0
  6
Continuous
 62
     7
370
    15
100
AcDbLine
 10
218.6815766206
 20
-154.6329385021
 30
0.0
 11
218.6815766206
 21
-154.6099893169
 31
0.0
  0
SPLINE
  5
346
330
1F
100
AcDbEntity
  8
0
  6
Continuous
 62
     7
370
    15
100
AcDbSpline
210
0.0
220
0.0
230
1.0
 70
    24
 71
     3
 72
     9
 73
     5
 74
     0
 42
0.000000001
 43
0.00000001
 40
0.0
 40
0.0
 40
0.0
 40
0.0
 40
0.0011935578274655
 40
1.0
 40
1.0
 40
1.0
 40
1.0
 10
213.681581388978
 20
-154.6100098059947
 30
0.0
 10
213.681581388978
 20
-154.610000637067
 30
0.0
 10
213.6815813889766
 20
-154.6023186233364
 30
0.0
 10
213.6815813889775
 20
-154.6176377048332
 30
0.0
 10
213.681581388978
 20
-154.6329385021204
 30
0.0
  0
LINE
  5
347
330
1F
100
AcDbEntity
  8
0
  6
Continuous
 62
     7
370
    15
100
AcDbLine
 10
201.1815337053
 20
-185.2917861545
 30
0.0
 11
201.2815502992
 21
-185.2917861545
 31
0.0
  0
LINE
  5
348
330
1F
100
AcDbEntity
  8
0
  6
Continuous
 62
     7
370
    15
100
AcDbLine
 10
231.0815481057
 20
-185.2917861545
 30
0.0
 11
231.1815646997
 21
-185.2917861545
 31
0.0
  0
LINE
  5
349
330
1F
100
AcDbEntity
  8
0
  6
Continuous
 62
     7
370
    15
100
AcDbLine
 10
-498.8184394726
 20
-185.2917861545
 30
0.0
 11
-498.7184377799
 21
-185.2917861545
 31
0.0
  0
LINE
  5
34A
330
1F
100
AcDbEntity
  8
0
  6
Continuous
 62
     7
370
    15
100
AcDbLine
 10
-468.9184381107
 20
-185.2917861545
 30
0.0
 11
-468.8184373492
 21
-185.2917861545
 31
0.0
  0
LINE
  5
34B
330
1F
100
AcDbEntity
  8
0
  6
Continuous
 62
     7
370
    15
100
AcDbLine
 10
217.6742581239
 20
-157.9917841011
 30
0.0
 11
187.1815351358
 21
-157.9917841011
 31
0.0
  0
LINE
  5
34C
330
1F
100
AcDbEntity
  8
0
  6
Continuous
 62
     7
370
    15
100
AcDbLine
 10
245.1815632692
 20
-157.9917841011
 30
0.0
 11
217.6742581239
 21
-157.9917841011
 31
0.0
  0
LINE
  5
34D
330
1F
100
AcDbEntity
  8
0
  6
Continuous
 62
     7
370
    15
100
AcDbLine
 10
217.6742581239
 20
-159.491784347
 30
0.0
 11
187.1815351358
 21
-159.491784347
 31
0.0
  0
LINE
  5
34E
330
1F
100
AcDbEntity
  8
0
  6
Continuous
 62
     7
370
    15
100
AcDbLine
 10
245.1815632692
 20
-159.491784347
 30
0.0
 11
217.6742581239
 21
-159.491784347
 31
0.0
  0
LINE
  5
34F
330
1F
100
AcDbEntity
  8
0
  6
Continuous
 62
     7
370
    15
100
AcDbLine
 10
-512.8184380421
 20
-178.991783818
 30
0.0
 11
-454.818437732
 21
-178.991783818
 31
0.0
  0
LINE
  5
350
330
1F
100
AcDbEntity
  8
0
  6
Continuous
 62
     7
370
    15
100
AcDbLine
 10
-512.8184380421
 20
-177.4917845034
 30
0.0
 11
-454.818437732
 21
-177.4917845034
 31
0.0
  0
LINE
  5
351
330
1F
100
AcDbEntity
  8
0
  6
Continuous
 62
     7
370
    15
100
AcDbLine
 10
187.1815351358
 20
-178.991783818
 30
0.0
 11
245.1815632692
 21
-178.991783818
 31
0.0
  0
LINE
  5
352
330
1F
100
AcDbEntity
  8
0
  6
Continuous
 62
     7
370
    15
100
AcDbLine
 10
187.1815351358
 20
-177.4917845034
 30
0.0
 11
245.1815632692
 21
-177.4917845034
 31
0.0
  0
LINE
  5
353
330
1F
100
AcDbEntity
  8
0
  6
Continuous
 62
     7
370
    15
100
AcDbLine
 10
-482.3257672081
 20
-159.491784347
 30
0.0
 11
-512.8184380421
 21
-159.491784347
 31
0.0
  0
LINE
  5
354
330
1F
100
AcDbEntity
  8
0
  6
Continuous
 62
     7
370
    15
100
AcDbLine
 10
-454.818437732
 20
-159.491784347
 30
0.0
 11
-482.3257672081
 21
-159.491784347
 31
0.0
  0
LINE
  5
355
330
1F
100
AcDbEntity
  8
0
  6
Continuous
 62
     7
370
    15
100
AcDbLine
 10
-482.3257672081
 20
-157.9917841011
 30
0.0
 11
-512.8184380421
 21
-157.9917841011
 31
0.0
  0
LINE
  5
356
330
1F
100
AcDbEntity
  8
0
  6
Continuous
 62
     7
370
    15
100
AcDbLine
 10
-454.818437732
 20
-157.9917841011
 30
0.0
 11
-482.3257672081
 21
-157.9917841011
 31
0.0
  0
LINE
  5
357
330
1F
100
AcDbEntity
  8
0
  6
Continuous
 62
     7
370
    15
100
AcDbLine
 10
205.353620421
 20
-160.5122130716
 30
0.0
 11
245.1815632692
 21
-160.5122130716
 31
0.0
  0
LINE
  5
358
330
1F
100
AcDbEntity
  8
0
  6
Continuous
 62
     7
370
    15
100
AcDbLine
 10
187.1815351358
 20
-160.5122130716
 30
0.0
 11
205.353620421
 21
-160.5122130716
 31
0.0
  0
LINE
  5
359
330
1F
100
AcDbEntity
  8
0
  6
Continuous
 62
     7
370
    15
100
AcDbLine
 10
187.1815351358
 20
-159.491784347
 30
0.0
 11
245.1815632692
 21
-159.491784347
 31
0.0
  0
LINE
  5
35A
330
1F
100
AcDbEntity
  8
0
  6
Continuous
 62
     7
370
    15
100
AcDbLine
 10
245.1815632692
 20
-176.5234586203
 30
0.0
 11
187.1815351358
 21
-176.5234586203
 31
0.0
  0
LINE
  5
35B
330
1F
100
AcDbEntity
  8
0
  6
Continuous
 62
     7
370
    15
100
AcDbLine
 10
-494.6464086363
 20
-160.5122130716
 30
0.0
 11
-454.818437732
 21
-160.5122130716
 31
0.0
  0
LINE
  5
35C
330
1F
100
AcDbEntity
  8
0
  6
Continuous
 62
     7
370
    15
100
AcDbLine
 10
-512.8184380421
 20
-160.5122130716
 30
0.0
 11
-494.6464086363
 21
-160.5122130716
 31
0.0
  0
LINE
  5
35D
330
1F
100
AcDbEntity
  8
0
  6
Continuous
 62
     7
370
    15
100
AcDbLine
 10
-512.8184380421
 20
-159.491784347
 30
0.0
 11
-454.818437732
 21
-159.491784347
 31
0.0
  0
LINE
  5
35E
330
1F
100
AcDbEntity
  8
0
  6
Continuous
 62
     7
370
    15
100
AcDbLine
 10
-454.818437732
 20
-176.5234586203
 30
0.0
 11
-512.8184380421
 21
-176.5234586203
 31
0.0
  0
LINE
  5
35F
330
1F
100
AcDbEntity
  8
0
  6
Continuous
 62
     7
370
    15
100
AcDbLine
 10
231.1815646997
 20
-179.7917861843
 30
0.0
 11
201.1815337053
 21
-179.7917861843
 31
0.0
  0
LINE
  5
360
330
1F
100
AcDbEntity
  8
0
  6
Continuous
 62
     7
370
    15
100
AcDbLine
 10
201.1815337053
 20
-185.1917844617
 30
0.0
 11
231.1815646997
 21
-185.1917844617
 31
0.0
  0
LINE
  5
361
330
1F
100
AcDbEntity
  8
0
  6
Continuous
 62
     7
370
    15
100
AcDbLine
 10
201.4815834871
 20
-179.4917848313
 30
0.0
 11
230.8815745225
 21
-179.4917848313
 31
0.0
  0
LINE
  5
362
330
1F
100
AcDbEntity
  8
0
  6
Continuous
 62
     7
370
    15
100
AcDbLine
 10
-498.5184381196
 20
-179.4917848313
 30
0.0
 11
-469.1184377709
 21
-179.4917848313
 31
0.0
  0
LINE
  5
363
330
1F
100
AcDbEntity
  8
0
  6
Continuous
 62
     7
370
    15
100
AcDbLine
 10
-468.8184373492
 20
-179.7917861843
 30
0.0
 11
-498.8184394726
 21
-179.7917861843
 31
0.0
  0
LINE
  5
364
330
1F
100
AcDbEntity
  8
0
  6
Continuous
 62
     7
370
    15
100
AcDbLine
 10
-498.8184394726
 20
-185.1917844617
 30
0.0
 11
-468.8184373492
 21
-185.1917844617
 31
0.0
  0
LINE
  5
365
330
1F
100
AcDbEntity
  8
0
  6
Continuous
 62
     7
370
    15
100
AcDbLine
 10
-498.6184360871
 20
-185.4917858147
 30
0.0
 11
-469.0184379408
 21
-185.4917858147
 31
0.0
  0
LINE
  5
366
330
1F
100
AcDbEntity
  8
0
  6
Continuous
 62
     7
370
    15
100
AcDbLine
 10
-469.0184379408
 20
-185.4917858147
 30
0.0
 11
-468.8184373492
 21
-185.691785475
 31
0.0
  0
LINE
  5
367
330
1F
100
AcDbEntity
  8
0
  6
Continuous
 62
     7
370
    15
100
AcDbLine
 10
-468.8184373492
 20
-185.691785475
 30
0.0
 11
-498.8184394726
 21
-185.691785475
 31
0.0
  0
LINE
  5
368
330
1F
100
AcDbEntity
  8
0
  6
Continuous
 62
     7
370
    15
100
AcDbLine
 10
-498.6184360871
 20
-185.4917858147
 30
0.0
 11
-498.8184394726
 21
-185.691785475
 31
0.0
  0
LINE
  5
369
330
1F
100
AcDbEntity
  8
0
  6
Continuous
 62
     7
370
    15
100
AcDbLine
 10
-498.8184394726
 20
-191.2917834127
 30
0.0
 11
-468.8184373492
 21
-191.2917834127
 31
0.0
  0
LINE
  5
36A
330
1F
100
AcDbEntity
  8
0
  6
Continuous
 62
     7
370
    15
100
AcDbLine
 10
-498.8184394726
 20
-185.691785475
 30
0.0
 11
-498.8184394726
 21
-191.2917834127
 31
0.0
  0
LINE
  5
36B
330
1F
100
AcDbEntity
  8
0
  6
Continuous
 62
     7
370
    15
100
AcDbLine
 10
-468.8184373492
 20
-185.691785475
 30
0.0
 11
-468.8184373492
 21
-191.2917834127
 31
0.0
  0
LINE
  5
36C
330
1F
100
AcDbEntity
  8
0
  6
Continuous
 62
     7
370
    15
100
AcDbLine
 10
-469.0184379408
 20
-191.4917830729
 30
0.0
 11
-498.6184360871
 21
-191.4917830729
 31
0.0
  0
LINE
  5
36D
330
1F
100
AcDbEntity
  8
0
  6
Continuous
 62
     7
370
    15
100
AcDbLine
 10
-498.6184360871
 20
-191.4917830729
 30
0.0
 11
-498.8184394726
 21
-191.2917834127
 31
0.0
  0
LINE
  5
36E
330
1F
100
AcDbEntity
  8
0
  6
Continuous
 62
     7
370
    15
100
AcDbLine
 10
-469.0184379408
 20
-191.4917830729
 30
0.0
 11
-468.8184373492
 21
-191.2917834127
 31
0.0
  0
LINE
  5
36F
330
1F
100
AcDbEntity
  8
0
  6
Continuous
 62
     7
370
    15
100
AcDbLine
 10
201.3815668931
 20
-185.4917858147
 30
0.0
 11
230.9815911165
 21
-185.4917858147
 31
0.0
  0
LINE
  5
370
330
1F
100
AcDbEntity
  8
0
  6
Continuous
 62
     7
370
    15
100
AcDbLine
 10
230.9815911165
 20
-185.4917858147
 30
0.0
 11
231.1815646997
 21
-185.691785475
 31
0.0
  0
LINE
  5
371
330
1F
100
AcDbEntity
  8
0
  6
Continuous
 62
     7
370
    15
100
AcDbLine
 10
231.1815646997
 20
-185.691785475
 30
0.0
 11
201.1815337053
 21
-185.691785475
 31
0.0
  0
LINE
  5
372
330
1F
100
AcDbEntity
  8
0
  6
Continuous
 62
     7
370
    15
100
AcDbLine
 10
201.3815668931
 20
-185.4917858147
 30
0.0
 11
201.1815337053
 21
-185.691785475
 31
0.0
  0
LINE
  5
373
330
1F
100
AcDbEntity
  8
0
  6
Continuous
 62
     7
370
    15
100
AcDbLine
 10
201.1815337053
 20
-191.2917834127
 30
0.0
 11
231.1815646997
 21
-191.2917834127
 31
0.0
  0
LINE
  5
374
330
1F
100
AcDbEntity
  8
0
  6
Continuous
 62
     7
370
    15
100
AcDbLine
 10
201.1815337053
 20
-185.691785475
 30
0.0
 11
201.1815337053
 21
-191.2917834127
 31
0.0
  0
LINE
  5
375
330
1F
100
AcDbEntity
  8
0
  6
Continuous
 62
     7
370
    15
100
AcDbLine
 10
231.1815646997
 20
-185.691785475
 30
0.0
 11
231.1815646997
 21
-191.2917834127
 31
0.0
  0
LINE
  5
376
330
1F
100
AcDbEntity
  8
0
  6
Continuous
 62
     7
370
    15
100
AcDbLine
 10
230.9815911165
 20
-191.4917830729
 30
0.0
 11
201.3815668931
 21
-191.4917830729
 31
0.0
  0
LINE
  5
377
330
1F
100
AcDbEntity
  8
0
  6
Continuous
 62
     7
370
    15
100
AcDbLine
 10
201.3815668931
 20
-191.4917830729
 30
0.0
 11
201.1815337053
 21
-191.2917834127
 31
0.0
  0
LINE
  5
378
330
1F
100
AcDbEntity
  8
0
  6
Continuous
 62
     7
370
    15
100
AcDbLine
 10
230.9815911165
 20
-191.4917830729
 30
0.0
 11
231.1815646997
 21
-191.2917834127
 31
0.0
  0
SPLINE
  5
379
330
1F
100
AcDbEntity
  8
0
  6
Continuous
 62
     7
370
    15
100
AcDbSpline
210
0.0
220
0.0
230
1.0
 70
     8
 71
     3
 72
     9
 73
     5
 74
     0
 42
0.000000001
 43
0.00000001
 40
0.0
 40
0.0
 40
0.0
 40
0.0
 40
0.1853562745398416
 40
1.0
 40
1.0
 40
1.0
 40
1.0
 10
-522.553381551238
 20
-195.9553327762956
 30
0.0
 10
-522.538019571966
 20
-195.9576377801754
 30
0.0
 10
-522.4551414535418
 20
-195.9700733121562
 30
0.0
 10
-522.3710814298162
 20
-195.9510390227735
 30
0.0
 10
-522.3026024589261
 20
-195.9355328583592
 30
0.0
  0
LINE
  5
37A
330
1F
100
AcDbEntity
  8
0
  6
Continuous
 62
     7
370
    15
100
AcDbLine
 10
-516.9269191513
 20
-195.9355328584
 30
0.0
 11
-517.0834558496
 21
-195.955329051
 31
0.0
  0
SPLINE
  5
37B
330
1F
100
AcDbEntity
  8
0
  6
Continuous
 62
     7
370
    15
100
AcDbSpline
210
0.0
220
0.0
230
1.0
 70
     8
 71
     3
 72
     9
 73
     5
 74
     0
 42
0.000000001
 43
0.00000001
 40
0.0
 40
0.0
 40
0.0
 40
0.0
 40
0.499999654431701
 40
0.9999999999999999
 40
0.9999999999999999
 40
0.9999999999999999
 40
0.9999999999999999
 10
-519.4110842833242
 20
-195.9355328583592
 30
0.0
 10
-518.9967567325111
 20
-195.9483497137256
 30
0.0
 10
-518.1681010581707
 20
-195.9739834421748
 30
0.0
 10
-517.3406466442038
 20
-195.9483497255366
 30
0.0
 10
-516.9269191512784
 20
-195.9355328583592
 30
0.0
  0
SPLINE
  5
37C
330
1F
100
AcDbEntity
  8
0
  6
Continuous
 62
     7
370
    15
100
AcDbSpline
210
0.0
220
0.0
230
1.0
 70
     8
 71
     3
 72
     9
 73
     5
 74
     0
 42
0.000000001
 43
0.00000001
 40
0.0
 40
0.0
 40
0.0
 40
0.0
 40
0.5000006406973072
 40
1.0
 40
1.0
 40
1.0
 40
1.0
 10
-522.3026024589261
 20
-195.9355328583592
 30
0.0
 10
-521.8208711990789
 20
-195.94834973058
 30
0.0
 10
-520.857409913958
 20
-195.9739834421749
 30
0.0
 10
-519.8931924150212
 20
-195.9483497086821
 30
0.0
 10
-519.4110842833242
 20
-195.9355328583592
 30
0.0
  0
SPLINE
  5
37D
330
1F
100
AcDbEntity
  8
0
  6
Continuous
 62
     7
370
    15
100
AcDbSpline
210
0.0
220
0.0
230
1.0
 70
     8
 71
     3
 72
     9
 73
     5
 74
     0
 42
0.000000001
 43
0.00000001
 40
0.0
 40
0.0
 40
0.0
 40
0.0
 40
0.185364365734683
 40
0.9999999999999999
 40
0.9999999999999999
 40
0.9999999999999999
 40
0.9999999999999999
 10
1877.446535002259
 20
-195.9553327762956
 30
0.0
 10
1877.461943665355
 20
-195.9576378055631
 30
0.0
 10
1877.545070015097
 20
-195.9700729316912
 30
0.0
 10
1877.628988422462
 20
-195.951038767102
 30
0.0
 10
1877.697351347474
 20
-195.9355328583592
 30
0.0
  0
LINE
  5
37E
330
1F
100
AcDbEntity
  8
0
  6
Continuous
 62
     7
370
    15
100
AcDbLine
 10
1883.0729750505
 20
-195.9355328584
 30
0.0
 11
1882.9165724626
 21
-195.955329051
 31
0.0
  0
SPLINE
  5
37F
330
1F
100
AcDbEntity
  8
0
  6
Continuous
 62
     7
370
    15
100
AcDbSpline
210
0.0
220
0.0
230
1.0
 70
     8
 71
     3
 72
     9
 73
     5
 74
     0
 42
0.000000001
 43
0.00000001
 40
0.0
 40
0.0
 40
0.0
 40
0.0
 40
0.4999987052023287
 40
1.0
 40
1.0
 40
1.0
 40
1.0
 10
1880.588891874818
 20
-195.9355328583592
 30
0.0
 10
1881.003204296199
 20
-195.9483496975042
 30
0.0
 10
1881.831831284768
 20
-195.973983442175
 30
0.0
 10
1882.659259747672
 20
-195.9483497417581
 30
0.0
 10
1883.072975050477
 20
-195.9355328583592
 30
0.0
  0
SPLINE
  5
380
330
1F
100
AcDbEntity
  8
0
  6
Continuous
 62
     7
370
    15
100
AcDbSpline
210
0.0
220
0.0
230
1.0
 70
     8
 71
     3
 72
     9
 73
     5
 74
     0
 42
0.000000001
 43
0.00000001
 40
0.0
 40
0.0
 40
0.0
 40
0.0
 40
0.5000413033677874
 40
0.9999999999999999
 40
0.9999999999999999
 40
0.9999999999999999
 40
0.9999999999999999
 10
1877.697351347474
 20
-195.9355328583592
 30
0.0
 10
1878.179135644493
 20
-195.9483504255288
 30
0.0
 10
1879.14262464785
 20
-195.973983442408
 30
0.0
 10
1880.106829349096
 20
-195.94834901385
 30
0.0
 10
1880.588891874818
 20
-195.9355328583592
 30
0.0
  0
LINE
  5
381
330
1F
100
AcDbEntity
  8
0
  6
Continuous
 62
     7
370
    15
100
AcDbLine
 10
1900.1816538682
 20
-193.0917840803
 30
0.0
 11
1860.1814535966
 21
-193.0917840803
 31
0.0
  0
LINE
  5
382
330
1F
100
AcDbEntity
  8
0
  6
Continuous
 62
     7
370
    15
100
AcDbLine
 10
1900.1816538682
 20
-185.091782769
 30
0.0
 11
1860.1814535966
 21
-185.091782769
 31
0.0
  0
LINE
  5
383
330
1F
100
AcDbEntity
  8
0
  6
Continuous
 62
     7
370
    15
100
AcDbLine
 10
-499.8184377739
 20
-193.0917840803
 30
0.0
 11
-539.8184406051
 21
-193.0917840803
 31
0.0
  0
LINE
  5
384
330
1F
100
AcDbEntity
  8
0
  6
Continuous
 62
     7
370
    15
100
AcDbLine
 10
-499.8184377739
 20
-185.091782769
 30
0.0
 11
-539.8184406051
 21
-185.091782769
 31
0.0
  0
LINE
  5
385
330
1F
100
AcDbEntity
  8
0
  6
Continuous
 62
     7
370
    15
100
AcDbLine
 10
-503.8184384296
 20
-154.2917843328
 30
0.0
 11
-535.8184399495
 21
-154.2917843328
 31
0.0
  0
LINE
  5
386
330
1F
100
AcDbEntity
  8
0
  6
Continuous
 62
     7
370
    15
100
AcDbLine
 10
-534.0184392819
 20
-152.4917841309
 30
0.0
 11
-505.6184390971
 21
-152.4917841309
 31
0.0
  0
SPLINE
  5
387
330
1F
100
AcDbEntity
  8
0
  6
Continuous
 62
     7
370
    15
100
AcDbSpline
210
0.0
220
0.0
230
1.0
 70
     8
 71
     3
 72
    10
 73
     6
 74
     0
 42
0.000000001
 43
0.00000001
 40
0.0
 40
0.0
 40
0.0
 40
0.0
 40
0.2388890012728406
 40
0.6901639007513944
 40
1.0
 40
1.0
 40
1.0
 40
1.0
 10
-503.9193416425904
 20
-180.9634011590356
 30
0.0
 10
-503.9003284159525
 20
-180.9871894668879
 30
0.0
 10
-503.8453981236726
 20
-181.0559152401638
 30
0.0
 10
-504.4238227110187
 20
-180.3329740699431
 30
0.0
 10
-505.1197601692356
 20
-179.3798040636248
 30
0.0
 10
-505.403065163823
 20
-178.991783817994
 30
0.0
  0
SPLINE
  5
388
330
1F
100
AcDbEntity
  8
0
  6
Continuous
 62
     7
370
    15
100
AcDbSpline
210
0.0
220
0.0
230
1.0
 70
     8
 71
     3
 72
    15
 73
    11
 74
     0
 42
0.000000001
 43
0.00000001
 40
0.0
 40
0.0
 40
0.0
 40
0.0
 40
0.104800721570361
 40
0.2106231810304134
 40
0.318972010955181
 40
0.4636220356843684
 40
0.6090243581022259
 40
0.7854069447619021
 40
0.9112648232571959
 40
1.0
 40
1.0
 40
1.0
 40
1.0
 10
-506.8184370586595
 20
-176.8932495617742
 30
0.0
 10
-507.1155227153201
 20
-176.4553237411371
 30
0.0
 10
-507.7125904177819
 20
-175.5752026120472
 30
0.0
 10
-508.6164379011269
 20
-173.8730280486373
 30
0.0
 10
-509.4855533274765
 20
-171.8211861355303
 30
0.0
 10
-510.0751580951497
 20
-169.2456057952351
 30
0.0
 10
-509.831902368228
 20
-166.1103597074338
 30
0.0
 10
-508.8015740557263
 20
-163.4317232766283
 30
0.0
 10
-507.691160678325
 20
-161.381460713783
 30
0.0
 10
-507.0737422906615
 20
-160.4353469714669
 30
0.0
 10
-506.8184370586595
 20
-160.044124757635
 30
0.0
  0
SPLINE
  5
389
330
1F
100
AcDbEntity
  8
0
  6
Continuous
 62
     7
370
    15
100
AcDbSpline
210
0.0
220
0.0
230
1.0
 70
     8
 71
     3
 72
    10
 73
     6
 74
     0
 42
0.000000001
 43
0.00000001
 40
0.0
 40
0.0
 40
0.0
 40
0.0
 40
0.3310561289432197
 40
0.7957734787544493
 40
1.0
 40
1.0
 40
1.0
 40
1.0
 10
-505.4131197223386
 20
-157.9917841011161
 30
0.0
 10
-505.1178007395676
 20
-157.593331837465
 30
0.0
 10
-504.4079301354128
 20
-156.6355554477772
 30
0.0
 10
-503.8844785691297
 20
-155.9764095701254
 30
0.0
 10
-503.8338846106147
 20
-155.9115770987208
 30
0.0
 10
-503.8184384295663
 20
-155.8917839431638
 30
0.0
  0
SPLINE
  5
38A
330
1F
100
AcDbEntity
  8
0
  6
Continuous
 62
     7
370
    15
100
AcDbSpline
210
0.0
220
0.0
230
1.0
 70
     8
 71
     3
 72
    22
 73
    18
 74
     0
 42
0.000000001
 43
0.00000001
 40
0.0
 40
0.0
 40
0.0
 40
0.0
 40
0.0870777515852964
 40
0.173803862499737
 40
0.231348164652687
 40
0.2905520976836643
 40
0.3488893402450803
 40
0.4089778077117788
 40
0.4779436667543061
 40
0.5473137020825267
 40
0.6291799217720504
 40
0.6881376553566357
 40
0.7487576271729274
 40
0.8086819239954529
 40
0.8706630853230071
 40
0.9564114177144288
 40
0.9999999999999999
 40
0.9999999999999999
 40
0.9999999999999999
 40
0.9999999999999999
 10
-535.8184399494847
 20
-155.8917839431638
 30
0.0
 10
-535.7358145525268
 20
-155.9959216918971
 30
0.0
 10
-535.5708974196145
 20
-156.203776656367
 30
0.0
 10
-534.5242230214488
 20
-157.5651567469787
 30
0.0
 10
-533.3976331966197
 20
-159.1360142253766
 30
0.0
 10
-532.3265761587459
 20
-160.7562871315747
 30
0.0
 10
-531.246107889699
 20
-162.6347313576354
 30
0.0
 10
-530.2411938666452
 20
-164.8687988161906
 30
0.0
 10
-529.577954481038
 20
-167.5491076320674
 30
0.0
 10
-529.7601730178918
 20
-170.6772650734003
 30
0.0
 10
-530.7471747869716
 20
-173.3648406858264
 30
0.0
 10
-531.9377415419535
 20
-175.5903040778865
 30
0.0
 10
-533.0445015670873
 20
-177.3332666813099
 30
0.0
 10
-534.1092788086308
 20
-178.8489034530439
 30
0.0
 10
-535.1036829738491
 20
-180.180444834395
 30
0.0
 10
-535.792275007458
 20
-181.0587406108264
 30
0.0
 10
-535.736375689261
 20
-180.9874329623985
 30
0.0
 10
-535.7175367364606
 20
-180.9634011590356
 30
0.0
  0
LINE
  5
38B
330
1F
100
AcDbEntity
  8
0
  6
Continuous
 62
     7
370
    15
100
AcDbLine
 10
1896.1814669481
 20
-154.2917843328
 30
0.0
 11
1864.1816405168
 21
-154.2917843328
 31
0.0
  0
LINE
  5
38C
330
1F
100
AcDbEntity
  8
0
  6
Continuous
 62
     7
370
    15
100
AcDbLine
 10
1865.9814623704
 20
-152.4917841309
 30
0.0
 11
1894.3816450944
 21
-152.4917841309
 31
0.0
  0
SPLINE
  5
38D
330
1F
100
AcDbEntity
  8
0
  6
Continuous
 62
     7
370
    15
100
AcDbSpline
210
0.0
220
0.0
230
1.0
 70
     8
 71
     3
 72
    22
 73
    18
 74
     0
 42
0.000000001
 43
0.00000001
 40
0.0
 40
0.0
 40
0.0
 40
0.0
 40
0.042448351139616
 40
0.1226355361386942
 40
0.2089115342875645
 40
0.3120066281137038
 40
0.3621947016207914
 40
0.4135779444528658
 40
0.4821779316063483
 40
0.551134647714672
 40
0.6347837206580401
 40
0.6944717763966439
 40
0.7558515076230038
 40
0.816193806196344
 40
0.8787131153841745
 40
0.9629715526399066
 40
0.9999999999999999
 40
0.9999999999999999
 40
0.9999999999999999
 40
0.9999999999999999
 10
1896.0806158891
 20
-180.9634011590356
 30
0.0
 10
1896.100582630389
 20
-180.9888690900439
 30
0.0
 10
1896.158267604179
 20
-181.0624472924873
 30
0.0
 10
1895.442126791505
 20
-180.1491048641828
 30
0.0
 10
1894.109583408441
 20
-178.365915326362
 30
0.0
 10
1892.597493856145
 20
-176.1251175324953
 30
0.0
 10
1891.385131974389
 20
-173.8826668390729
 30
0.0
 10
1890.513866819205
 20
-171.8176724565184
 30
0.0
 10
1889.925051491815
 20
-169.2461609310548
 30
0.0
 10
1890.167800825296
 20
-166.1121273266682
 30
0.0
 10
1891.199605459363
 20
-163.4231544718897
 30
0.0
 10
1892.421533239106
 20
-161.1903606802437
 30
0.0
 10
1893.539116065518
 20
-159.4560245194837
 30
0.0
 10
1894.59468862747
 20
-157.9669280305155
 30
0.0
 10
1895.5709703728
 20
-156.6690451914386
 30
0.0
 10
1896.117115392118
 20
-155.9737694421131
 30
0.0
 10
1896.166415732413
 20
-155.9109595700234
 30
0.0
 10
1896.18146694806
 20
-155.8917839431638
 30
0.0
  0
SPLINE
  5
38E
330
1F
100
AcDbEntity
  8
0
  6
Continuous
 62
     7
370
    15
100
AcDbSpline
210
0.0
220
0.0
230
1.0
 70
     8
 71
     3
 72
    22
 73
    18
 74
     0
 42
0.000000001
 43
0.00000001
 40
0.0
 40
0.0
 40
0.0
 40
0.0
 40
0.0870778767934977
 40
0.1738030442789283
 40
0.2313482374659799
 40
0.2905529105086043
 40
0.3488891231350361
 40
0.4089783667454488
 40
0.477943620477634
 40
0.5473136709795513
 40
0.6291807682405274
 40
0.6881363174404
 40
0.7487571924312042
 40
0.8086813874850606
 40
0.8706623488508672
 40
0.9564113877483466
 40
1.0
 40
1.0
 40
1.0
 40
1.0
 10
1864.181640516785
 20
-155.8917839431638
 30
0.0
 10
1864.264293418768
 20
-155.9959185188861
 30
0.0
 10
1864.429264436803
 20
-156.2037658727917
 30
0.0
 10
1865.475686615228
 20
-157.5651798159822
 30
0.0
 10
1866.602420726252
 20
-159.1360156310481
 30
0.0
 10
1867.673582386461
 20
-160.7562490939254
 30
0.0
 10
1868.753845536232
 20
-162.6347766955118
 30
0.0
 10
1869.75898037966
 20
-164.8687587483018
 30
0.0
 10
1870.421932682145
 20
-167.5491248862412
 30
0.0
 10
1870.239914210081
 20
-170.6772931676552
 30
0.0
 10
1869.252589576484
 20
-173.3647549584656
 30
0.0
 10
1868.062448114681
 20
-175.590373427769
 30
0.0
 10
1866.955489202398
 20
-177.3332400672098
 30
0.0
 10
1865.890762836005
 20
-178.8489066891022
 30
0.0
 10
1864.896438219898
 20
-180.1804519958757
 30
0.0
 10
1864.207603812394
 20
-181.0587392126215
 30
0.0
 10
1864.263615011741
 20
-180.9874325199686
 30
0.0
 10
1864.282491575745
 20
-180.9634011590356
 30
0.0
  0
LINE
  5
38F
330
1F
100
AcDbEntity
  8
0
  6
Continuous
 62
     7
370
    15
100
AcDbLine
 10
1830.1814822068
 20
-117.9917849952
 30
0.0
 11
1822.1815852037
 21
-117.9917849952
 31
0.0
  0
LINE
  5
390
330
1F
100
AcDbEntity
  8
0
  6
Continuous
 62
     7
370
    15
100
AcDbLine
 10
1825.1816061845
 20
-107.9917852187
 30
0.0
 11
1827.181461226
 21
-107.9917852187
 31
0.0
  0
LINE
  5
391
330
1F
100
AcDbEntity
  8
0
  6
Continuous
 62
     7
370
    15
100
AcDbLine
 10
-449.8184374945
 20
-117.9917849952
 30
0.0
 11
-457.8184378745
 21
-117.9917849952
 31
0.0
  0
LINE
  5
392
330
1F
100
AcDbEntity
  8
0
  6
Continuous
 62
     7
370
    15
100
AcDbLine
 10
-454.818437732
 20
-107.9917852187
 30
0.0
 11
-452.818437637
 21
-107.9917852187
 31
0.0
  0
LINE
  5
393
330
1F
100
AcDbEntity
  8
0
  6
Continuous
 62
     7
370
    15
100
AcDbLine
 10
690.1816157213
 20
-117.9917849952
 30
0.0
 11
682.1815995088
 21
-117.9917849952
 31
0.0
  0
LINE
  5
394
330
1F
100
AcDbEntity
  8
0
  6
Continuous
 62
     7
370
    15
100
AcDbLine
 10
685.1816204896
 20
-107.9917852187
 30
0.0
 11
687.1815947404
 21
-107.9917852187
 31
0.0
  0
LINE
  5
395
330
1F
100
AcDbEntity
  8
0
  6
Continuous
 62
     7
370
    15
100
AcDbLine
 10
1260.1815489641
 20
-117.9917849952
 30
0.0
 11
1252.1815327516
 21
-117.9917849952
 31
0.0
  0
LINE
  5
396
330
1F
100
AcDbEntity
  8
0
  6
Continuous
 62
     7
370
    15
100
AcDbLine
 10
1255.1815537324
 20
-107.9917852187
 30
0.0
 11
1257.1815279832
 21
-107.9917852187
 31
0.0
  0
LINE
  5
397
330
1F
100
AcDbEntity
  8
0
  6
Continuous
 62
     7
370
    15
100
AcDbLine
 10
120.1815632692
 20
-117.9917849952
 30
0.0
 11
112.1815470567
 21
-117.9917849952
 31
0.0
  0
LINE
  5
398
330
1F
100
AcDbEntity
  8
0
  6
Continuous
 62
     7
370
    15
100
AcDbLine
 10
115.1815680375
 20
-107.9917852187
 30
0.0
 11
117.1815422883
 21
-107.9917852187
 31
0.0
  0
LWPOLYLINE
  5
399
330
1F
100
AcDbEntity
  8
0
  6
Continuous
 62
     7
370
    15
100
AcDbPolyline
 90
       13
 70
   128
 43
0.0
 10
1833.6538103929
 20
-156.0083203369
 10
1833.4060934892
 20
-156.1550995687
 10
1832.5446871629
 20
-156.6389002257
 10
1831.0381201616
 20
-157.3748546073
 10
1828.7779120317
 20
-158.1602240333
 10
1826.7079619279
 20
-158.4779410043
 10
1824.569585692
 20
-158.3626954237
 10
1822.6958540788
 20
-157.9016674662
 10
1820.8838728776
 20
-157.1751911545
 10
1819.3749216905
 20
-156.3951302671
 10
1818.7063959947
 20
-156.0066290551
 10
1818.6816004625
 20
-155.9917847046
 10
1818.6816004625
 20
-155.9917847046
  0
SPLINE
  5
39A
330
1F
100
AcDbEntity
  8
0
  6
Continuous
 62
     7
370
    15
100
AcDbSpline
210
0.0
220
0.0
230
1.0
 70
     8
 71
     3
 72
    13
 73
     9
 74
     0
 42
0.000000001
 43
0.00000001
 40
0.0
 40
0.0
 40
0.0
 40
0.0
 40
0.1560825127169452
 40
0.3239021422192146
 40
0.509284368129192
 40
0.7186236565981039
 40
0.8826099208394884
 40
1.0
 40
1.0
 40
1.0
 40
1.0
 10
-446.346298366966
 20
-156.0083203369254
 30
0.0
 10
-446.38960544965
 20
-156.0348092695899
 30
0.0
 10
-446.4794762276792
 20
-156.0897790537495
 30
0.0
 10
-447.4176985256601
 20
-156.6319962383434
 30
0.0
 10
-448.9468201995181
 20
-157.4115358467256
 30
0.0
 10
-450.9800635412306
 20
-158.1634137765001
 30
0.0
 10
-453.0875711524686
 20
-158.5553135131822
 30
0.0
 10
-454.3088999342079
 20
-158.4426714835181
 30
0.0
 10
-454.8184377320057
 20
-158.3956772813076
 30
0.0
  0
SPLINE
  5
39B
330
1F
100
AcDbEntity
  8
0
  6
Continuous
 62
     7
370
    15
100
AcDbSpline
210
0.0
220
0.0
230
1.0
 70
     8
 71
     3
 72
    12
 73
     8
 74
     0
 42
0.000000001
 43
0.00000001
 40
0.0
 40
0.0
 40
0.0
 40
0.0
 40
0.0455999212015249
 40
0.3148709915704421
 40
0.6279057700908355
 40
0.9305267151704139
 40
1.0
 40
1.0
 40
1.0
 40
1.0
 10
-456.937934545981
 20
-157.9917841011161
 30
0.0
 10
-457.0612046636311
 20
-157.9626309033962
 30
0.0
 10
-457.9123943839812
 20
-157.7613258126933
 30
0.0
 10
-459.2733479044543
 20
-157.107252352111
 30
0.0
 10
-460.7479989357625
 20
-156.344294408843
 30
0.0
 10
-461.2854708586722
 20
-156.0110685865995
 30
0.0
 10
-461.3132507629573
 20
-155.9948187018641
 30
0.0
 10
-461.3184375168702
 20
-155.9917847046131
 30
0.0
  0
LWPOLYLINE
  5
39C
330
1F
100
AcDbEntity
  8
0
  6
Continuous
 62
     7
370
    15
100
AcDbPolyline
 90
       13
 70
   128
 43
0.0
 10
123.6537126413
 20
-156.0083203369
 10
123.4061149469
 20
-156.1550995687
 10
122.5448278299
 20
-156.6389002257
 10
121.0381416192
 20
-157.3748546073
 10
118.7779334894
 20
-158.1602240333
 10
116.7079237809
 20
-158.4779410043
 10
114.5696071496
 20
-158.3626954237
 10
112.6958159318
 20
-157.9016674662
 10
110.8838943353
 20
-157.1751911545
 10
109.3750027528
 20
-156.3951302671
 10
108.7063578477
 20
-156.0066290551
 10
108.6815623155
 20
-155.9917847046
 10
108.6815623155
 20
-155.9917847046
  0
LWPOLYLINE
  5
39D
330
1F
100
AcDbEntity
  8
0
  6
Continuous
 62
     7
370
    15
100
AcDbPolyline
 90
       13
 70
   128
 43
0.0
 10
1263.6537579408
 20
-156.0083203369
 10
1263.4060410371
 20
-156.1550995687
 10
1262.5447539201
 20
-156.6389002257
 10
1261.0380677095
 20
-157.3748546073
 10
1258.7779787889
 20
-158.1602240333
 10
1256.7079094758
 20
-158.4779410043
 10
1254.5696524492
 20
-158.3626954237
 10
1252.6958016267
 20
-157.9016674662
 10
1250.8839396348
 20
-157.1751911545
 10
1249.3749884477
 20
-156.3951302671
 10
1248.7063435426
 20
-156.0066290551
 10
1248.6815480104
 20
-155.9917847046
 10
1248.6815480104
 20
-155.9917847046
  0
LWPOLYLINE
  5
39E
330
1F
100
AcDbEntity
  8
0
  6
Continuous
 62
     7
370
    15
100
AcDbPolyline
 90
       13
 70
   128
 43
0.0
 10
693.6537054887
 20
-156.0083203369
 10
693.4061077943
 20
-156.1550995687
 10
692.5448206773
 20
-156.6389002257
 10
691.0381344667
 20
-157.3748546073
 10
688.7779263368
 20
-158.1602240333
 10
686.707976233
 20
-158.4779410043
 10
684.5695999971
 20
-158.3626954237
 10
682.6957491746
 20
-157.9016674662
 10
680.8838871827
 20
-157.1751911545
 10
679.3750552049
 20
-156.3951302671
 10
678.7062910905
 20
-156.0066290551
 10
678.6816147676
 20
-155.9917847046
 10
678.6816147676
 20
-155.9917847046
  0
LINE
  5
39F
330
1F
100
AcDbEntity
  8
0
  6
Continuous
 62
     7
370
    15
100
AcDbLine
 10
-483.818437014
 20
-149.9917844196
 30
0.0
 11
-423.8184383551
 21
-149.9917844196
 31
0.0
  0
LINE
  5
3A0
330
1F
100
AcDbEntity
  8
0
  6
Continuous
 62
     7
370
    15
100
AcDbLine
 10
-423.8184383551
 20
-147.9917843246
 30
0.0
 11
-483.818437014
 21
-147.9917843246
 31
0.0
  0
LINE
  5
3A1
330
1F
100
AcDbEntity
  8
0
  6
Continuous
 62
     7
370
    15
100
AcDbLine
 10
-438.8184380198
 20
-151.9917845146
 30
0.0
 11
-468.8184373492
 21
-151.9917845146
 31
0.0
  0
LINE
  5
3A2
330
1F
100
AcDbEntity
  8
0
  6
Continuous
 62
     7
370
    15
100
AcDbLine
 10
656.1815766206
 20
-149.9917844196
 30
0.0
 11
716.1815194001
 21
-149.9917844196
 31
0.0
  0
LINE
  5
3A3
330
1F
100
AcDbEntity
  8
0
  6
Continuous
 62
     7
370
    15
100
AcDbLine
 10
716.1815194001
 20
-147.9917843246
 30
0.0
 11
656.1815766206
 21
-147.9917843246
 31
0.0
  0
LINE
  5
3A4
330
1F
100
AcDbEntity
  8
0
  6
Continuous
 62
     7
370
    15
100
AcDbLine
 10
701.1815337053
 20
-151.9917845146
 30
0.0
 11
671.1815623155
 21
-151.9917845146
 31
0.0
  0
LINE
  5
3A5
330
1F
100
AcDbEntity
  8
0
  6
Continuous
 62
     7
370
    15
100
AcDbLine
 10
1856.181505095
 20
-147.9917843246
 30
0.0
 11
1796.1815623155
 21
-147.9917843246
 31
0.0
  0
LINE
  5
3A6
330
1F
100
AcDbEntity
  8
0
  6
Continuous
 62
     7
370
    15
100
AcDbLine
 10
1796.1815623155
 20
-149.9917844196
 30
0.0
 11
1856.181505095
 21
-149.9917844196
 31
0.0
  0
LINE
  5
3A7
330
1F
100
AcDbEntity
  8
0
  6
Continuous
 62
     7
370
    15
100
AcDbLine
 10
1841.1816386094
 20
-151.9917845146
 30
0.0
 11
1811.1816672197
 21
-151.9917845146
 31
0.0
  0
LINE
  5
3A8
330
1F
100
AcDbEntity
  8
0
  6
Continuous
 62
     7
370
    15
100
AcDbLine
 10
146.1815861573
 20
-147.9917843246
 30
0.0
 11
86.1815837732
 21
-147.9917843246
 31
0.0
  0
LINE
  5
3A9
330
1F
100
AcDbEntity
  8
0
  6
Continuous
 62
     7
370
    15
100
AcDbLine
 10
86.1815837732
 20
-149.9917844196
 30
0.0
 11
146.1815861573
 21
-149.9917844196
 31
0.0
  0
LINE
  5
3AA
330
1F
100
AcDbEntity
  8
0
  6
Continuous
 62
     7
370
    15
100
AcDbLine
 10
131.1815408578
 20
-151.9917845146
 30
0.0
 11
101.181569468
 21
-151.9917845146
 31
0.0
  0
LINE
  5
3AB
330
1F
100
AcDbEntity
  8
0
  6
Continuous
 62
     7
370
    15
100
AcDbLine
 10
1226.1815098634
 20
-149.9917844196
 30
0.0
 11
1286.1815718522
 21
-149.9917844196
 31
0.0
  0
LINE
  5
3AC
330
1F
100
AcDbEntity
  8
0
  6
Continuous
 62
     7
370
    15
100
AcDbLine
 10
1286.1815718522
 20
-147.9917843246
 30
0.0
 11
1226.1815098634
 21
-147.9917843246
 31
0.0
  0
LINE
  5
3AD
330
1F
100
AcDbEntity
  8
0
  6
Continuous
 62
     7
370
    15
100
AcDbLine
 10
1271.1815861573
 20
-151.9917845146
 30
0.0
 11
1241.1816147676
 21
-151.9917845146
 31
0.0
  0
LINE
  5
3AE
330
1F
100
AcDbEntity
  8
0
  6
Continuous
 62
     8
370
    15
100
AcDbLine
 10
-483.818437014
 20
-155.9643730873
 30
0.0
 11
-468.9863557408
 21
-155.9643730873
 31
0.0
  0
LINE
  5
3AF
330
1F
100
AcDbEntity
  8
0
  6
Continuous
 62
     8
370
    15
100
AcDbLine
 10
-498.6505182872
 20
-155.9643730873
 30
0.0
 11
-483.818437014
 21
-155.9643730873
 31
0.0
  0
LINE
  5
3B0
330
1F
100
AcDbEntity
  8
0
  6
Continuous
 62
     8
370
    15
100
AcDbLine
 10
-483.818437014
 20
-156.1617836708
 30
0.0
 11
-498.8184394726
 21
-156.1617836708
 31
0.0
  0
LINE
  5
3B1
330
1F
100
AcDbEntity
  8
0
  6
Continuous
 62
     8
370
    15
100
AcDbLine
 10
-468.8184373492
 20
-156.1617836708
 30
0.0
 11
-483.818437014
 21
-156.1617836708
 31
0.0
  0
LINE
  5
3B2
330
1F
100
AcDbEntity
  8
0
  6
Continuous
 62
     8
370
    15
100
AcDbLine
 10
-498.8184394726
 20
-157.2917843589
 30
0.0
 11
-468.8184373492
 21
-157.2917843589
 31
0.0
  0
LINE
  5
3B3
330
1F
100
AcDbEntity
  8
0
  6
Continuous
 62
     8
370
    15
100
AcDbLine
 10
-474.0684377441
 20
-157.6917846107
 30
0.0
 11
-493.5684362838
 21
-157.6917846107
 31
0.0
  0
LINE
  5
3B4
330
1F
100
AcDbEntity
  8
0
  6
Continuous
 62
     8
370
    15
100
AcDbLine
 10
216.1815790048
 20
-155.9643730873
 30
0.0
 11
231.0136584153
 21
-155.9643730873
 31
0.0
  0
LINE
  5
3B5
330
1F
100
AcDbEntity
  8
0
  6
Continuous
 62
     8
370
    15
100
AcDbLine
 10
201.3494995942
 20
-155.9643730873
 30
0.0
 11
216.1815790048
 21
-155.9643730873
 31
0.0
  0
LINE
  5
3B6
330
1F
100
AcDbEntity
  8
0
  6
Continuous
 62
     8
370
    15
100
AcDbLine
 10
216.1815790048
 20
-156.1617836708
 30
0.0
 11
201.1815337053
 21
-156.1617836708
 31
0.0
  0
LINE
  5
3B7
330
1F
100
AcDbEntity
  8
0
  6
Continuous
 62
     8
370
    15
100
AcDbLine
 10
231.1815646997
 20
-156.1617836708
 30
0.0
 11
216.1815790048
 21
-156.1617836708
 31
0.0
  0
LINE
  5
3B8
330
1F
100
AcDbEntity
  8
0
  6
Continuous
 62
     8
370
    15
100
AcDbLine
 10
201.1815337053
 20
-157.2917843589
 30
0.0
 11
231.1815646997
 21
-157.2917843589
 31
0.0
  0
LINE
  5
3B9
330
1F
100
AcDbEntity
  8
0
  6
Continuous
 62
     8
370
    15
100
AcDbLine
 10
225.9315875879
 20
-157.6917846107
 30
0.0
 11
206.4315704217
 21
-157.6917846107
 31
0.0
  0
LINE
  5
3BA
330
1F
100
AcDbEntity
  8
0
  6
Continuous
 62
     8
370
    15
100
AcDbLine
 10
-496.3184381315
 20
-192.8233955407
 30
0.0
 11
-471.318437759
 21
-192.8233955407
 31
0.0
  0
LINE
  5
3BB
330
1F
100
AcDbEntity
  8
0
  6
Continuous
 62
     8
370
    15
100
AcDbLine
 10
-471.4845018873
 20
-193.0204969251
 30
0.0
 11
-496.1523721406
 21
-193.0204969251
 31
0.0
  0
LINE
  5
3BC
330
1F
100
AcDbEntity
  8
0
  6
Continuous
 62
     8
370
    15
100
AcDbLine
 10
203.6815909257
 20
-192.8233955407
 30
0.0
 11
228.6815670839
 21
-192.8233955407
 31
0.0
  0
LINE
  5
3BD
330
1F
100
AcDbEntity
  8
0
  6
Continuous
 62
     8
370
    15
100
AcDbLine
 10
228.5155085435
 20
-193.0204969251
 30
0.0
 11
203.8476494661
 21
-193.0204969251
 31
0.0
  0
LINE
  5
3BE
330
1F
100
AcDbEntity
  8
0
  6
Continuous
 62
     8
370
    15
100
AcDbLine
 10
-534.8184379229
 20
-194.4217834973
 30
0.0
 11
-504.8184367308
 21
-194.4217834973
 31
0.0
  0
LINE
  5
3BF
330
1F
100
AcDbEntity
  8
0
  6
Continuous
 62
     8
370
    15
100
AcDbLine
 10
-504.9863579163
 20
-194.6191940808
 30
0.0
 11
-534.6505167374
 21
-194.6191940808
 31
0.0
  0
LINE
  5
3C0
330
1F
100
AcDbEntity
  8
0
  6
Continuous
 62
     8
370
    15
100
AcDbLine
 10
1865.1815680375
 20
-194.4217834973
 30
0.0
 11
1895.1815394273
 21
-194.4217834973
 31
0.0
  0
LINE
  5
3C1
330
1F
100
AcDbEntity
  8
0
  6
Continuous
 62
     8
370
    15
100
AcDbLine
 10
1895.0136927476
 20
-194.6191940808
 30
0.0
 11
1865.3494147172
 21
-194.6191940808
 31
0.0
  0
LINE
  5
3C2
330
1F
100
AcDbEntity
  8
0
  6
Continuous
 62
     7
370
    15
100
AcDbLine
 10
-788.4274333013
 20
2165.1337555036
 30
0.0
 11
-792.1265888257
 21
2165.1337555036
 31
0.0
  0
LINE
  5
3C3
330
1F
100
AcDbEntity
  8
0
  6
Continuous
 62
     7
370
    15
100
AcDbLine
 10
-794.7647388322
 20
2165.1337555036
 30
0.0
 11
-794.8262545509
 21
2165.1337555036
 31
0.0
  0
LINE
  5
3C4
330
1F
100
AcDbEntity
  8
0
  6
Continuous
 62
     7
370
    15
100
AcDbLine
 10
-794.8606259419
 20
2150.233755669
 30
0.0
 11
-794.7647388322
 21
2150.233755669
 31
0.0
  0
LINE
  5
3C5
330
1F
100
AcDbEntity
  8
0
  6
Continuous
 62
     7
370
    15
100
AcDbLine
 10
-792.1265888257
 20
2150.233755669
 30
0.0
 11
-788.4274333013
 21
2150.233755669
 31
0.0
  0
LINE
  5
3C6
330
1F
100
AcDbEntity
  8
0
  6
Continuous
 62
     7
370
    15
100
AcDbLine
 10
-788.0274339808
 20
2165.1337555036
 30
0.0
 11
-788.2274336411
 21
2164.9337553777
 31
0.0
  0
LINE
  5
3C7
330
1F
100
AcDbEntity
  8
0
  6
Continuous
 62
     7
370
    15
100
AcDbLine
 10
-788.2274336411
 20
2150.433755795
 30
0.0
 11
-788.0274339808
 21
2150.233755669
 31
0.0
  0
LWPOLYLINE
  5
3C8
330
1F
100
AcDbEntity
  8
0
  6
Continuous
 62
     7
370
    15
100
AcDbPolyline
 90
        3
 70
   128
 43
0.0
 10
-778.2274338646
 20
2150.233755669
 10
-777.4470721601
 20
2150.3106144615
 10
-777.1940085335
 20
2150.3695569359
  0
LWPOLYLINE
  5
3C9
330
1F
100
AcDbEntity
  8
0
  6
Continuous
 62
     7
370
    15
100
AcDbPolyline
 90
        3
 70
   128
 43
0.0
 10
-777.1940085335
 20
2164.9979542368
 10
-777.4470721601
 20
2165.0568967112
 10
-778.2274338646
 20
2165.1337555036
  0
LINE
  5
3CA
330
1F
100
AcDbEntity
  8
0
  6
Continuous
 62
     7
370
    15
100
AcDbLine
 10
-778.2274338646
 20
2165.1337555036
 30
0.0
 11
-788.0274339808
 21
2165.1337555036
 31
0.0
  0
LINE
  5
3CB
330
1F
100
AcDbEntity
  8
0
  6
Continuous
 62
     7
370
    15
100
AcDbLine
 10
-788.0274339808
 20
2150.233755669
 30
0.0
 11
-778.2274338646
 21
2150.233755669
 31
0.0
  0
LINE
  5
3CC
330
1F
100
AcDbEntity
  8
0
  6
Continuous
 62
     7
370
    15
100
AcDbLine
 10
-788.4274333013
 20
2150.233755669
 30
0.0
 11
-788.2274336411
 21
2150.433755795
 31
0.0
  0
LINE
  5
3CD
330
1F
100
AcDbEntity
  8
0
  6
Continuous
 62
     7
370
    15
100
AcDbLine
 10
-788.2274336411
 20
2164.9337553777
 30
0.0
 11
-788.4274333013
 21
2165.1337555036
 31
0.0
  0
LINE
  5
3CE
330
1F
100
AcDbEntity
  8
0
  6
Continuous
 62
     7
370
    15
100
AcDbLine
 10
-779.8974330766
 20
2020.1837526061
 30
0.0
 11
-781.2274343563
 21
2020.1837526061
 31
0.0
  0
LINE
  5
3CF
330
1F
100
AcDbEntity
  8
0
  6
Continuous
 62
     7
370
    15
100
AcDbLine
 10
-781.2274343563
 20
1990.183751414
 30
0.0
 11
-779.8974330766
 21
1990.183751414
 31
0.0
  0
ARC
  5
3D0
330
1F
100
AcDbEntity
  8
0
  6
Continuous
 62
     7
370
    15
100
AcDbCircle
 10
-779.8974325838
 20
1990.3837555863
 30
0.0
 40
0.1999999999999303
100
AcDbArc
 50
270.0
 51
350.7694259593
  0
ARC
  5
3D1
330
1F
100
AcDbEntity
  8
0
  6
Continuous
 62
     7
370
    15
100
AcDbCircle
 10
-779.8974325838
 20
2019.9837555863
 30
0.0
 40
0.2000000000000455
100
AcDbArc
 50
9.2305740409
 51
90.0
  0
LINE
  5
3D2
330
1F
100
AcDbEntity
  8
0
  6
Continuous
 62
     7
370
    15
100
AcDbLine
 10
-778.3816898889
 20
2002.0852136002
 30
0.0
 11
-778.376843175
 21
2002.1628526831
 31
0.0
  0
ARC
  5
3D3
330
1F
100
AcDbEntity
  8
0
  6
Continuous
 62
     7
370
    15
100
AcDbCircle
 10
-898.1461195147
 20
2009.6006241946
 30
0.0
 40
120.0
100
AcDbArc
 50
350.7694259592
 51
356.4093058417
  0
ARC
  5
3D4
330
1F
100
AcDbEntity
  8
0
  6
Continuous
 62
     7
370
    15
100
AcDbCircle
 10
-898.1461195147
 20
2000.7668869781
 30
0.0
 40
120.0000000000001
100
AcDbArc
 50
3.6056329326
 51
9.2305740408
  0
LINE
  5
3D5
330
1F
100
AcDbEntity
  8
0
  6
Continuous
 62
     7
370
    15
100
AcDbLine
 10
-778.3766826069
 20
2008.2020724345
 30
0.0
 11
-778.3836534587
 21
2008.3135235919
 31
0.0
  0
ARC
  5
3D6
330
1F
100
AcDbEntity
  8
0
  6
Continuous
 62
     7
370
    15
100
AcDbCircle
 10
-779.8974325838
 20
2045.3837555863
 30
0.0
 40
0.2000000000000455
100
AcDbArc
 50
270.0
 51
350.7694259592
  0
ARC
  5
3D7
330
1F
100
AcDbEntity
  8
0
  6
Continuous
 62
     7
370
    15
100
AcDbCircle
 10
-779.8974325838
 20
2074.9837555863
 30
0.0
 40
0.2000000000002728
100
AcDbArc
 50
9.2305740409
 51
90.0
  0
LINE
  5
3D8
330
1F
100
AcDbEntity
  8
0
  6
Continuous
 62
     7
370
    15
100
AcDbLine
 10
-779.8974330766
 20
2075.1837523081
 30
0.0
 11
-781.2274343563
 21
2075.1837523081
 31
0.0
  0
LINE
  5
3D9
330
1F
100
AcDbEntity
  8
0
  6
Continuous
 62
     7
370
    15
100
AcDbLine
 10
-781.2274343563
 20
2045.1837585666
 30
0.0
 11
-779.8974330766
 21
2045.1837585666
 31
0.0
  0
ARC
  5
3DA
330
1F
100
AcDbEntity
  8
0
  6
Continuous
 62
     7
370
    15
100
AcDbCircle
 10
-898.1461195147
 20
2064.6006241946
 30
0.0
 40
120.0000000000001
100
AcDbArc
 50
350.7694259592
 51
356.5805440306
  0
ARC
  5
3DB
330
1F
100
AcDbEntity
  8
0
  6
Continuous
 62
     7
370
    15
100
AcDbCircle
 10
-898.1461195147
 20
2055.7668869781
 30
0.0
 40
120.0000000000002
100
AcDbArc
 50
3.418957854
 51
9.2305740408
  0
LINE
  5
3DC
330
1F
100
AcDbEntity
  8
0
  6
Continuous
 62
     7
370
    15
100
AcDbLine
 10
-772.3974327786
 20
2211.1837559738
 30
0.0
 11
-773.5274334667
 21
2211.1837559738
 31
0.0
  0
LINE
  5
3DD
330
1F
100
AcDbEntity
  8
0
  6
Continuous
 62
     7
370
    15
100
AcDbLine
 10
-773.5274334667
 20
2181.1837547817
 30
0.0
 11
-772.3974327786
 21
2181.1837547817
 31
0.0
  0
ARC
  5
3DE
330
1F
100
AcDbEntity
  8
0
  6
Continuous
 62
     7
370
    15
100
AcDbCircle
 10
-772.3974325838
 20
2181.3837555863
 30
0.0
 40
0.1999999999999668
100
AcDbArc
 50
270.0
 51
350.7694259592
  0
ARC
  5
3DF
330
1F
100
AcDbEntity
  8
0
  6
Continuous
 62
     7
370
    15
100
AcDbCircle
 10
-772.3974325838
 20
2210.9837555863
 30
0.0
 40
0.2000000000007276
100
AcDbArc
 50
9.2305740409
 51
90.0
  0
ARC
  5
3E0
330
1F
100
AcDbEntity
  8
0
  6
Continuous
 62
     7
370
    15
100
AcDbCircle
 10
-773.5274334325
 20
2210.9837555863
 30
0.0
 40
0.2000000000007276
100
AcDbArc
 50
90.0
 51
180.0
  0
ARC
  5
3E1
330
1F
100
AcDbEntity
  8
0
  6
Continuous
 62
     7
370
    15
100
AcDbCircle
 10
-773.5274334325
 20
2181.3837555863
 30
0.0
 40
0.2000000000000455
100
AcDbArc
 50
180.0
 51
270.0
  0
ARC
  5
3E2
330
1F
100
AcDbEntity
  8
0
  6
Continuous
 62
     7
370
    15
100
AcDbCircle
 10
-890.6461195147
 20
2200.6006241946
 30
0.0
 40
119.9999999999999
100
AcDbArc
 50
350.7694259592
 51
356.5108676084
  0
ARC
  5
3E3
330
1F
100
AcDbEntity
  8
0
  6
Continuous
 62
     7
370
    15
100
AcDbCircle
 10
-890.6461195147
 20
2191.7668869781
 30
0.0
 40
120.0
100
AcDbArc
 50
3.4870608462
 51
9.2305740408
  0
ARC
  5
3E4
330
1F
100
AcDbEntity
  8
0
  6
Continuous
 62
     7
370
    15
100
AcDbCircle
 10
-773.9274334325
 20
2206.1337555863
 30
0.0
 40
0.2000000000000455
100
AcDbArc
 50
270.0
 51
0.0
  0
ARC
  5
3E5
330
1F
100
AcDbEntity
  8
0
  6
Continuous
 62
     7
370
    15
100
AcDbCircle
 10
-773.9274334325
 20
2186.2337555863
 30
0.0
 40
0.2000000000002728
100
AcDbArc
 50
0.0
 51
90.0
  0
LINE
  5
3E6
330
1F
100
AcDbEntity
  8
0
  6
Continuous
 62
     7
370
    15
100
AcDbLine
 10
-773.9274337186
 20
2205.9337565102
 30
0.0
 11
-774.227433209
 21
2205.9337565102
 31
0.0
  0
LINE
  5
3E7
330
1F
100
AcDbEntity
  8
0
  6
Continuous
 62
     7
370
    15
100
AcDbLine
 10
-774.227433209
 20
2186.4337561079
 30
0.0
 11
-773.9274337186
 21
2186.4337561079
 31
0.0
  0
LINE
  5
3E8
330
1F
100
AcDbEntity
  8
0
  6
Continuous
 62
     7
370
    15
100
AcDbLine
 10
-792.2274342967
 20
1991.1837534406
 30
0.0
 11
-790.7274331195
 21
1991.1837534406
 31
0.0
  0
LINE
  5
3E9
330
1F
100
AcDbEntity
  8
0
  6
Continuous
 62
     7
370
    15
100
AcDbLine
 10
-790.7274331195
 20
2019.1837505796
 30
0.0
 11
-792.2274342967
 21
2019.1837505796
 31
0.0
  0
LINE
  5
3EA
330
1F
100
AcDbEntity
  8
0
  6
Continuous
 62
     7
370
    15
100
AcDbLine
 10
-792.2274342967
 20
2046.1837531426
 30
0.0
 11
-790.7274331195
 21
2046.1837531426
 31
0.0
  0
LINE
  5
3EB
330
1F
100
AcDbEntity
  8
0
  6
Continuous
 62
     7
370
    15
100
AcDbLine
 10
-790.7274331195
 20
2074.1837577321
 30
0.0
 11
-792.2274342967
 21
2074.1837577321
 31
0.0
  0
LINE
  5
3EC
330
1F
100
AcDbEntity
  8
0
  6
Continuous
 62
     7
370
    15
100
AcDbLine
 10
-782.7274336709
 20
2046.1837531426
 30
0.0
 11
-781.2274343563
 21
2046.1837531426
 31
0.0
  0
LINE
  5
3ED
330
1F
100
AcDbEntity
  8
0
  6
Continuous
 62
     7
370
    15
100
AcDbLine
 10
-781.2274343563
 20
2074.1837577321
 30
0.0
 11
-782.7274336709
 21
2074.1837577321
 31
0.0
  0
LINE
  5
3EE
330
1F
100
AcDbEntity
  8
0
  6
Continuous
 62
     7
370
    15
100
AcDbLine
 10
-782.7274336709
 20
1991.1837534406
 30
0.0
 11
-781.2274343563
 21
1991.1837534406
 31
0.0
  0
LINE
  5
3EF
330
1F
100
AcDbEntity
  8
0
  6
Continuous
 62
     7
370
    15
100
AcDbLine
 10
-781.2274343563
 20
2019.1837505796
 30
0.0
 11
-782.7274336709
 21
2019.1837505796
 31
0.0
  0
LINE
  5
3F0
330
1F
100
AcDbEntity
  8
0
  6
Continuous
 62
     7
370
    15
100
AcDbLine
 10
-801.5274352623
 20
2020.1837526061
 30
0.0
 11
-801.7274349226
 21
2019.9837492206
 31
0.0
  0
LINE
  5
3F1
330
1F
100
AcDbEntity
  8
0
  6
Continuous
 62
     7
370
    15
100
AcDbLine
 10
-801.7274349226
 20
1990.3837547996
 30
0.0
 11
-801.5274352623
 21
1990.183751414
 31
0.0
  0
LINE
  5
3F2
330
1F
100
AcDbEntity
  8
0
  6
Continuous
 62
     7
370
    15
100
AcDbLine
 10
-801.5274352623
 20
1990.183751414
 30
0.0
 11
-792.427433957
 21
1990.183751414
 31
0.0
  0
LINE
  5
3F3
330
1F
100
AcDbEntity
  8
0
  6
Continuous
 62
     7
370
    15
100
AcDbLine
 10
-792.427433957
 20
2020.1837526061
 30
0.0
 11
-801.5274352623
 21
2020.1837526061
 31
0.0
  0
LINE
  5
3F4
330
1F
100
AcDbEntity
  8
0
  6
Continuous
 62
     7
370
    15
100
AcDbLine
 10
-792.427433957
 20
1990.183751414
 30
0.0
 11
-792.2274342967
 21
1990.3837547996
 31
0.0
  0
LINE
  5
3F5
330
1F
100
AcDbEntity
  8
0
  6
Continuous
 62
     7
370
    15
100
AcDbLine
 10
-792.2274342967
 20
2019.9837492206
 30
0.0
 11
-792.427433957
 21
2020.1837526061
 31
0.0
  0
LINE
  5
3F6
330
1F
100
AcDbEntity
  8
0
  6
Continuous
 62
     7
370
    15
100
AcDbLine
 10
-792.427433957
 20
2045.1837585666
 30
0.0
 11
-792.2274342967
 21
2045.3837545015
 31
0.0
  0
LINE
  5
3F7
330
1F
100
AcDbEntity
  8
0
  6
Continuous
 62
     7
370
    15
100
AcDbLine
 10
-792.2274342967
 20
2074.9837563731
 30
0.0
 11
-792.427433957
 21
2075.1837523081
 31
0.0
  0
LINE
  5
3F8
330
1F
100
AcDbEntity
  8
0
  6
Continuous
 62
     7
370
    15
100
AcDbLine
 10
-801.5274352623
 20
2045.1837585666
 30
0.0
 11
-792.427433957
 21
2045.1837585666
 31
0.0
  0
LINE
  5
3F9
330
1F
100
AcDbEntity
  8
0
  6
Continuous
 62
     7
370
    15
100
AcDbLine
 10
-792.427433957
 20
2075.1837523081
 30
0.0
 11
-801.5274352623
 21
2075.1837523081
 31
0.0
  0
LINE
  5
3FA
330
1F
100
AcDbEntity
  8
0
  6
Continuous
 62
     7
370
    15
100
AcDbLine
 10
-801.5274352623
 20
2075.1837523081
 30
0.0
 11
-801.7274349226
 21
2074.9837563731
 31
0.0
  0
LINE
  5
3FB
330
1F
100
AcDbEntity
  8
0
  6
Continuous
 62
     7
370
    15
100
AcDbLine
 10
-801.7274349226
 20
2045.3837545015
 30
0.0
 11
-801.5274352623
 21
2045.1837585666
 31
0.0
  0
LINE
  5
3FC
330
1F
100
AcDbEntity
  8
0
  6
Continuous
 62
     7
370
    15
100
AcDbLine
 10
-774.227433209
 20
2225.1837582686
 30
0.0
 11
-775.7274334548
 21
2225.1837582686
 31
0.0
  0
LINE
  5
3FD
330
1F
100
AcDbEntity
  8
0
  6
Continuous
 62
     7
370
    15
100
AcDbLine
 10
-793.7274336113
 20
2225.1837582686
 30
0.0
 11
-795.2274329258
 21
2225.1837582686
 31
0.0
  0
LINE
  5
3FE
330
1F
100
AcDbEntity
  8
0
  6
Continuous
 62
     7
370
    15
100
AcDbLine
 10
-776.6033954216
 20
2167.1837552809
 30
0.0
 11
-776.5280830903
 21
2167.1837552809
 31
0.0
  0
LINE
  5
3FF
330
1F
100
AcDbEntity
  8
0
  6
Continuous
 62
     7
370
    15
100
AcDbLine
 10
-775.7274334548
 20
2225.1837582686
 30
0.0
 11
-776.7478621794
 21
2225.1837582686
 31
0.0
  0
ARC
  5
400
330
1F
100
AcDbEntity
  8
0
  6
Continuous
 62
     7
370
    15
100
AcDbCircle
 10
-784.7534848557
 20
2234.7837555863
 30
0.0
 40
12.50000000000034
100
AcDbArc
 50
230.1746287392
 51
309.8253712608
  0
LINE
  5
401
330
1F
100
AcDbEntity
  8
0
  6
Continuous
 62
     7
370
    15
100
AcDbLine
 10
-792.7591077281
 20
2225.1837582686
 30
0.0
 11
-793.7274336113
 21
2225.1837582686
 31
0.0
  0
LINE
  5
402
330
1F
100
AcDbEntity
  8
0
  6
Continuous
 62
     7
370
    15
100
AcDbLine
 10
-796.0274352921
 20
2181.1837547817
 30
0.0
 11
-795.7274339391
 21
2181.4837561347
 31
0.0
  0
LINE
  5
403
330
1F
100
AcDbEntity
  8
0
  6
Continuous
 62
     7
370
    15
100
AcDbLine
 10
-795.7274339391
 20
2210.8837546208
 30
0.0
 11
-796.0274352921
 21
2211.1837559738
 31
0.0
  0
LINE
  5
404
330
1F
100
AcDbEntity
  8
0
  6
Continuous
 62
     7
370
    15
100
AcDbLine
 10
-801.4274335696
 20
2181.1837547817
 30
0.0
 11
-796.0274352921
 21
2181.1837547817
 31
0.0
  0
LINE
  5
405
330
1F
100
AcDbEntity
  8
0
  6
Continuous
 62
     7
370
    15
100
AcDbLine
 10
-796.0274352921
 20
2211.1837559738
 30
0.0
 11
-801.4274335696
 21
2211.1837559738
 31
0.0
  0
LINE
  5
406
330
1F
100
AcDbEntity
  8
0
  6
Continuous
 62
     7
370
    15
100
AcDbLine
 10
-801.4274335696
 20
2211.1837559738
 30
0.0
 11
-801.7274349226
 21
2210.8837546208
 31
0.0
  0
LINE
  5
407
330
1F
100
AcDbEntity
  8
0
  6
Continuous
 62
     7
370
    15
100
AcDbLine
 10
-801.7274349226
 20
2181.4837561347
 30
0.0
 11
-801.4274335696
 21
2181.1837547817
 31
0.0
  0
LINE
  5
408
330
1F
100
AcDbEntity
  8
0
  6
Continuous
 62
     7
370
    15
100
AcDbLine
 10
-795.7274339391
 20
2186.4337561079
 30
0.0
 11
-795.2274329258
 21
2186.4337561079
 31
0.0
  0
LINE
  5
409
330
1F
100
AcDbEntity
  8
0
  6
Continuous
 62
     7
370
    15
100
AcDbLine
 10
-795.2274329258
 20
2205.9337565102
 30
0.0
 11
-795.7274339391
 21
2205.9337565102
 31
0.0
  0
LINE
  5
40A
330
1F
100
AcDbEntity
  8
0
  6
Continuous
 62
     7
370
    15
100
AcDbLine
 10
-801.5274352623
 20
2128.1837554075
 30
0.0
 11
-773.727433127
 21
2128.1837554075
 31
0.0
  0
LINE
  5
40B
330
1F
100
AcDbEntity
  8
0
  6
Continuous
 62
     7
370
    15
100
AcDbLine
 10
-773.727433127
 20
2128.1837554075
 30
0.0
 11
-772.7274338944
 21
2129.1837555714
 31
0.0
  0
LINE
  5
40C
330
1F
100
AcDbEntity
  8
0
  6
Continuous
 62
     7
370
    15
100
AcDbLine
 10
-801.7274349226
 20
2128.3837550678
 30
0.0
 11
-801.5274352623
 21
2128.1837554075
 31
0.0
  0
ARC
  5
40D
330
1F
100
AcDbEntity
  8
0
  6
Continuous
 62
     7
370
    15
100
AcDbCircle
 10
-809.0590461348
 20
2072.4837555863
 30
0.0
 40
0.1999999999998782
100
AcDbArc
 50
90.0
 51
170.2307482569
  0
ARC
  5
40E
330
1F
100
AcDbEntity
  8
0
  6
Continuous
 62
     7
370
    15
100
AcDbCircle
 10
-809.0590461348
 20
2047.8837555863
 30
0.0
 40
0.2000000000000455
100
AcDbArc
 50
189.7692517432
 51
270.0
  0
LINE
  5
40F
330
1F
100
AcDbEntity
  8
0
  6
Continuous
 62
     7
370
    15
100
AcDbLine
 10
-809.0590446485
 20
2047.6837561824
 30
0.0
 11
-807.7274321808
 21
2047.6837561824
 31
0.0
  0
LINE
  5
410
330
1F
100
AcDbEntity
  8
0
  6
Continuous
 62
     7
370
    15
100
AcDbLine
 10
-807.7274321808
 20
2072.6837546923
 30
0.0
 11
-809.0590446485
 21
2072.6837546923
 31
0.0
  0
ARC
  5
411
330
1F
100
AcDbEntity
  8
0
  6
Continuous
 62
     7
370
    15
100
AcDbCircle
 10
-690.9962538442
 20
2052.1560140358
 30
0.0
 40
120.0
100
AcDbArc
 50
170.2307482568
 51
176.16417102
  0
ARC
  5
412
330
1F
100
AcDbEntity
  8
0
  6
Continuous
 62
     7
370
    15
100
AcDbCircle
 10
-690.9962538442
 20
2068.2114971369
 30
0.0
 40
120.0
100
AcDbArc
 50
183.83582898
 51
189.7692517432
  0
LINE
  5
413
330
1F
100
AcDbEntity
  8
0
  6
Continuous
 62
     7
370
    15
100
AcDbLine
 10
-809.0590446485
 20
1992.6837490298
 30
0.0
 11
-807.7274321808
 21
1992.6837490298
 31
0.0
  0
LINE
  5
414
330
1F
100
AcDbEntity
  8
0
  6
Continuous
 62
     7
370
    15
100
AcDbLine
 10
-807.7274321808
 20
2017.6837549903
 30
0.0
 11
-809.0590446485
 21
2017.6837549903
 31
0.0
  0
ARC
  5
415
330
1F
100
AcDbEntity
  8
0
  6
Continuous
 62
     7
370
    15
100
AcDbCircle
 10
-809.0590461348
 20
2017.4837555863
 30
0.0
 40
0.2000000000000455
100
AcDbArc
 50
90.0
 51
170.2307482568
  0
ARC
  5
416
330
1F
100
AcDbEntity
  8
0
  6
Continuous
 62
     7
370
    15
100
AcDbCircle
 10
-809.0590461348
 20
1992.8837555863
 30
0.0
 40
0.1999999999999554
100
AcDbArc
 50
189.7692517433
 51
270.0
  0
ARC
  5
417
330
1F
100
AcDbEntity
  8
0
  6
Continuous
 62
     7
370
    15
100
AcDbCircle
 10
-690.9962538442
 20
1997.1560140358
 30
0.0
 40
120.0
100
AcDbArc
 50
170.2307482568
 51
176.16417102
  0
ARC
  5
418
330
1F
100
AcDbEntity
  8
0
  6
Continuous
 62
     7
370
    15
100
AcDbCircle
 10
-690.9962538442
 20
2013.2114971369
 30
0.0
 40
120.0
100
AcDbArc
 50
183.83582898
 51
189.7692517432
  0
LINE
  5
419
330
1F
100
AcDbEntity
  8
0
  6
Continuous
 62
     7
370
    15
100
AcDbLine
 10
-809.0590446485
 20
2123.6837537386
 30
0.0
 11
-807.7274321808
 21
2123.6837537386
 31
0.0
  0
ARC
  5
41A
330
1F
100
AcDbEntity
  8
0
  6
Continuous
 62
     7
370
    15
100
AcDbCircle
 10
-809.0590461348
 20
2123.8837555863
 30
0.0
 40
0.1999999999998782
100
AcDbArc
 50
189.7692517431
 51
270.0
  0
ARC
  5
41B
330
1F
100
AcDbEntity
  8
0
  6
Continuous
 62
     7
370
    15
100
AcDbCircle
 10
-690.9962538442
 20
2128.1560140358
 30
0.0
 40
120.0
100
AcDbArc
 50
173.0464573859
 51
176.16417102
  0
ARC
  5
41C
330
1F
100
AcDbEntity
  8
0
  6
Continuous
 62
     7
370
    15
100
AcDbCircle
 10
-690.9962538442
 20
2144.2114971369
 30
0.0
 40
120.0
100
AcDbArc
 50
183.83582898
 51
189.7692517432
  0
LINE
  5
41D
330
1F
100
AcDbEntity
  8
0
  6
Continuous
 62
     7
370
    15
100
AcDbLine
 10
-809.0590446485
 20
2183.6837561228
 30
0.0
 11
-807.7274321808
 21
2183.6837561228
 31
0.0
  0
LINE
  5
41E
330
1F
100
AcDbEntity
  8
0
  6
Continuous
 62
     7
370
    15
100
AcDbLine
 10
-807.7274321808
 20
2208.6837546327
 30
0.0
 11
-809.0590446485
 21
2208.6837546327
 31
0.0
  0
ARC
  5
41F
330
1F
100
AcDbEntity
  8
0
  6
Continuous
 62
     7
370
    15
100
AcDbCircle
 10
-809.0590461348
 20
2208.4837555863
 30
0.0
 40
0.2000000000002728
100
AcDbArc
 50
90.0
 51
170.2307482566
  0
ARC
  5
420
330
1F
100
AcDbEntity
  8
0
  6
Continuous
 62
     7
370
    15
100
AcDbCircle
 10
-809.0590461348
 20
2183.8837555863
 30
0.0
 40
0.1999999999998782
100
AcDbArc
 50
189.7692517431
 51
270.0
  0
ARC
  5
421
330
1F
100
AcDbEntity
  8
0
  6
Continuous
 62
     7
370
    15
100
AcDbCircle
 10
-690.9962538442
 20
2188.1560140358
 30
0.0
 40
120.0
100
AcDbArc
 50
170.2307482568
 51
176.16417102
  0
ARC
  5
422
330
1F
100
AcDbEntity
  8
0
  6
Continuous
 62
     7
370
    15
100
AcDbCircle
 10
-690.9962538442
 20
2204.2114971369
 30
0.0
 40
120.0000000000001
100
AcDbArc
 50
183.83582898
 51
189.7692517432
  0
LINE
  5
423
330
1F
100
AcDbEntity
  8
0
  6
Continuous
 62
     7
370
    15
100
AcDbLine
 10
-807.5274325205
 20
2211.1837559738
 30
0.0
 11
-807.7274321808
 21
2210.9837563135
 31
0.0
  0
LINE
  5
424
330
1F
100
AcDbEntity
  8
0
  6
Continuous
 62
     7
370
    15
100
AcDbLine
 10
-803.077431698
 20
1989.1837493875
 30
0.0
 11
-801.9274345828
 21
1989.1837493875
 31
0.0
  0
LINE
  5
425
330
1F
100
AcDbEntity
  8
0
  6
Continuous
 62
     7
370
    15
100
AcDbLine
 10
-807.5274325205
 20
1989.1837493875
 30
0.0
 11
-806.356808473
 21
1989.1837493875
 31
0.0
  0
LINE
  5
426
330
1F
100
AcDbEntity
  8
0
  6
Continuous
 62
     7
370
    15
100
AcDbLine
 10
-801.9274345828
 20
2211.1837559738
 30
0.0
 11
-807.5274325205
 21
2211.1837559738
 31
0.0
  0
LINE
  5
427
330
1F
100
AcDbEntity
  8
0
  6
Continuous
 62
     7
370
    15
100
AcDbLine
 10
-801.7274349226
 20
2210.9837563135
 30
0.0
 11
-801.9274345828
 21
2211.1837559738
 31
0.0
  0
LINE
  5
428
330
1F
100
AcDbEntity
  8
0
  6
Continuous
 62
     7
370
    15
100
AcDbLine
 10
-801.9274345828
 20
1989.1837493875
 30
0.0
 11
-801.7274349226
 21
1989.383752773
 31
0.0
  0
LINE
  5
429
330
1F
100
AcDbEntity
  8
0
  6
Continuous
 62
     7
370
    15
100
AcDbLine
 10
-807.7274321808
 20
1989.383752773
 30
0.0
 11
-807.5274325205
 21
1989.1837493875
 31
0.0
  0
LINE
  5
42A
330
1F
100
AcDbEntity
  8
0
  6
Continuous
 62
     7
370
    15
100
AcDbLine
 10
-793.227432598
 20
76.9337670304
 30
0.0
 11
-794.2274327619
 21
76.9337670304
 31
0.0
  0
LINE
  5
42B
330
1F
100
AcDbEntity
  8
0
  6
Continuous
 62
     7
370
    15
100
AcDbLine
 10
-779.2274330972
 20
76.9337670304
 30
0.0
 11
-780.2274341924
 21
76.9337670304
 31
0.0
  0
LINE
  5
42C
330
1F
100
AcDbEntity
  8
0
  6
Continuous
 62
     7
370
    15
100
AcDbLine
 10
-794.7274337752
 20
77.1838681199
 30
0.0
 11
-796.2274349524
 21
77.1838681199
 31
0.0
  0
LINE
  5
42D
330
1F
100
AcDbEntity
  8
0
  6
Continuous
 62
     7
370
    15
100
AcDbLine
 10
-777.2274337007
 20
77.1838681199
 30
0.0
 11
-778.7274330152
 21
77.1838681199
 31
0.0
  0
LINE
  5
42E
330
1F
100
AcDbEntity
  8
0
  6
Continuous
 62
     7
370
    15
100
AcDbLine
 10
-776.7274336187
 20
76.683665941
 30
0.0
 11
-777.2274337007
 21
77.1838681199
 31
0.0
  0
LINE
  5
42F
330
1F
100
AcDbEntity
  8
0
  6
Continuous
 62
     7
370
    15
100
AcDbLine
 10
-796.2274349524
 20
77.1838681199
 30
0.0
 11
-796.7274322404
 21
76.683665941
 31
0.0
  0
LINE
  5
430
330
1F
100
AcDbEntity
  8
0
  6
Continuous
 62
     7
370
    15
100
AcDbLine
 10
-778.7274330152
 20
77.1838681199
 30
0.0
 11
-779.2274330972
 21
76.683665941
 31
0.0
  0
LINE
  5
431
330
1F
100
AcDbEntity
  8
0
  6
Continuous
 62
     7
370
    15
100
AcDbLine
 10
-794.2274327619
 20
76.683665941
 30
0.0
 11
-794.7274337752
 21
77.1838681199
 31
0.0
  0
LINE
  5
432
330
1F
100
AcDbEntity
  8
0
  6
Continuous
 62
     7
370
    15
100
AcDbLine
 10
-810.6574326052
 20
2142.6837559216
 30
0.0
 11
-809.3274331881
 21
2142.6837559216
 31
0.0
  0
LINE
  5
433
330
1F
100
AcDbEntity
  8
0
  6
Continuous
 62
     7
370
    15
100
AcDbLine
 10
-809.3274331881
 20
2172.6837552511
 30
0.0
 11
-810.6574326052
 21
2172.6837552511
 31
0.0
  0
ARC
  5
434
330
1F
100
AcDbEntity
  8
0
  6
Continuous
 62
     7
370
    15
100
AcDbCircle
 10
-810.6574342812
 20
2172.4837555863
 30
0.0
 40
0.2000000000002728
100
AcDbArc
 50
90.0
 51
170.7694259591
  0
ARC
  5
435
330
1F
100
AcDbEntity
  8
0
  6
Continuous
 62
     7
370
    15
100
AcDbCircle
 10
-810.6574342812
 20
2142.8837555863
 30
0.0
 40
0.1999999999999668
100
AcDbArc
 50
189.2305740408
 51
270.0
  0
ARC
  5
436
330
1F
100
AcDbEntity
  8
0
  6
Continuous
 62
     7
370
    15
100
AcDbCircle
 10
-692.4087473502
 20
2153.2668869781
 30
0.0
 40
120.0000000000001
100
AcDbArc
 50
170.7694259592
 51
176.4874053343
  0
ARC
  5
437
330
1F
100
AcDbEntity
  8
0
  6
Continuous
 62
     7
370
    15
100
AcDbCircle
 10
-692.4087473502
 20
2162.1006241946
 30
0.0
 40
120.0000000000001
100
AcDbArc
 50
183.5116471215
 51
189.2305740408
  0
LINE
  5
438
330
1F
100
AcDbEntity
  8
0
  6
Continuous
 62
     7
370
    15
100
AcDbLine
 10
-801.3274318768
 20
2177.6837551393
 30
0.0
 11
-809.3274331881
 21
2177.6837551393
 31
0.0
  0
LINE
  5
439
330
1F
100
AcDbEntity
  8
0
  6
Continuous
 62
     7
370
    15
100
AcDbLine
 10
-809.3274331881
 20
2137.6837560334
 30
0.0
 11
-801.3274318768
 21
2137.6837560334
 31
0.0
  0
LINE
  5
43A
330
1F
100
AcDbEntity
  8
0
  6
Continuous
 62
     7
370
    15
100
AcDbLine
 10
-770.5274334407
 20
2173.6837563463
 30
0.0
 11
-801.3274318768
 21
2173.6837563463
 31
0.0
  0
LINE
  5
43B
330
1F
100
AcDbEntity
  8
0
  6
Continuous
 62
     7
370
    15
100
AcDbLine
 10
-801.3274318768
 20
2141.6837548264
 30
0.0
 11
-770.5274334407
 21
2141.6837548264
 31
0.0
  0
LINE
  5
43C
330
1F
100
AcDbEntity
  8
0
  6
Continuous
 62
     7
370
    15
100
AcDbLine
 10
-770.5274334407
 20
2141.6837548264
 30
0.0
 11
-768.7274332388
 21
2143.483755494
 31
0.0
  0
LINE
  5
43D
330
1F
100
AcDbEntity
  8
0
  6
Continuous
 62
     7
370
    15
100
AcDbLine
 10
-768.7274332388
 20
2171.8837556787
 30
0.0
 11
-770.5274334407
 21
2173.6837563463
 31
0.0
  0
LINE
  5
43E
330
1F
100
AcDbEntity
  8
0
  6
Continuous
 62
     7
370
    15
100
AcDbLine
 10
-734.227434103
 20
2153.6837553964
 30
0.0
 11
-724.2274343265
 21
2156.6837555388
 31
0.0
  0
LINE
  5
43F
330
1F
100
AcDbEntity
  8
0
  6
Continuous
 62
     7
370
    15
100
AcDbLine
 10
-724.2274343265
 20
2158.6837556338
 30
0.0
 11
-734.227434103
 21
2161.6837557763
 31
0.0
  0
LINE
  5
440
330
1F
100
AcDbEntity
  8
0
  6
Continuous
 62
     7
370
    15
100
AcDbLine
 10
-734.227434103
 20
2161.6837557763
 30
0.0
 11
-764.2274334325
 21
2161.6837557763
 31
0.0
  0
LINE
  5
441
330
1F
100
AcDbEntity
  8
0
  6
Continuous
 62
     7
370
    15
100
AcDbLine
 10
-764.2274334325
 20
2153.6837553964
 30
0.0
 11
-734.227434103
 21
2153.6837553964
 31
0.0
  0
LINE
  5
442
330
1F
100
AcDbEntity
  8
0
  6
Continuous
 62
     7
370
    15
100
AcDbLine
 10
-768.2274336225
 20
2165.1837554187
 30
0.0
 11
-768.7274332388
 21
2165.1837554187
 31
0.0
  0
LINE
  5
443
330
1F
100
AcDbEntity
  8
0
  6
Continuous
 62
     7
370
    15
100
AcDbLine
 10
-768.7274332388
 20
2150.183755754
 30
0.0
 11
-768.2274336225
 21
2150.183755754
 31
0.0
  0
LINE
  5
444
330
1F
100
AcDbEntity
  8
0
  6
Continuous
 62
     7
370
    15
100
AcDbLine
 10
-764.2274334325
 20
2187.6837549158
 30
0.0
 11
-766.2274335275
 21
2187.6837549158
 31
0.0
  0
LINE
  5
445
330
1F
100
AcDbEntity
  8
0
  6
Continuous
 62
     7
370
    15
100
AcDbLine
 10
-766.2274335275
 20
2127.6837562569
 30
0.0
 11
-764.2274334325
 21
2127.6837562569
 31
0.0
  0
LINE
  5
446
330
1F
100
AcDbEntity
  8
0
  6
Continuous
 62
     7
370
    15
100
AcDbLine
 10
-766.2274335275
 20
2187.6837549158
 30
0.0
 11
-768.2274336225
 21
2172.6837552511
 31
0.0
  0
LINE
  5
447
330
1F
100
AcDbEntity
  8
0
  6
Continuous
 62
     7
370
    15
100
AcDbLine
 10
-768.2274336225
 20
2142.6837559216
 30
0.0
 11
-766.2274335275
 21
2127.6837562569
 31
0.0
  0
CIRCLE
  5
448
330
1F
100
AcDbEntity
  8
0
  6
Continuous
 62
     7
370
    15
100
AcDbCircle
 10
-784.7274334325
 20
2157.6837555863
 30
0.0
 40
10.5
  0
CIRCLE
  5
449
330
1F
100
AcDbEntity
  8
0
  6
Continuous
 62
     7
370
    15
100
AcDbCircle
 10
-784.7274334325
 20
2157.6837555863
 30
0.0
 40
12.5
  0
LINE
  5
44A
330
1F
100
AcDbEntity
  8
0
  6
Continuous
 62
     7
370
    15
100
AcDbLine
 10
-788.4274333013
 20
2150.233755669
 30
0.0
 11
-788.4274333013
 21
2165.1337555036
 31
0.0
  0
LINE
  5
44B
330
1F
100
AcDbEntity
  8
0
  6
Continuous
 62
     7
370
    15
100
AcDbLine
 10
-788.2274336411
 20
2150.433755795
 30
0.0
 11
-788.2274336411
 21
2164.9337553777
 31
0.0
  0
LINE
  5
44C
330
1F
100
AcDbEntity
  8
0
  6
Continuous
 62
     7
370
    15
100
AcDbLine
 10
-788.0274339808
 20
2150.233755669
 30
0.0
 11
-788.0274339808
 21
2165.1337555036
 31
0.0
  0
LINE
  5
44D
330
1F
100
AcDbEntity
  8
0
  6
Continuous
 62
     7
370
    15
100
AcDbLine
 10
-790.7274331195
 20
65.1837841966
 30
0.0
 11
-782.7274336709
 21
65.1837841966
 31
0.0
  0
LINE
  5
44E
330
1F
100
AcDbEntity
  8
0
  6
Continuous
 62
     7
370
    15
100
AcDbLine
 10
-790.7274331195
 20
2115.1837551393
 30
0.0
 11
-782.7274336709
 21
2115.1837551393
 31
0.0
  0
LINE
  5
44F
330
1F
100
AcDbEntity
  8
0
  6
Continuous
 62
     7
370
    15
100
AcDbLine
 10
-782.7274336709
 20
65.1837841966
 30
0.0
 11
-782.7274336709
 21
2115.1837551393
 31
0.0
  0
LINE
  5
450
330
1F
100
AcDbEntity
  8
0
  6
Continuous
 62
     7
370
    15
100
AcDbLine
 10
-790.7274331195
 20
65.1837841966
 30
0.0
 11
-790.7274331195
 21
2115.1837551393
 31
0.0
  0
LINE
  5
451
330
1F
100
AcDbEntity
  8
0
  6
Continuous
 62
     7
370
    15
100
AcDbLine
 10
-781.2274343563
 20
2013.5336772897
 30
0.0
 11
-781.2274343563
 21
1990.183751414
 31
0.0
  0
LINE
  5
452
330
1F
100
AcDbEntity
  8
0
  6
Continuous
 62
     7
370
    15
100
AcDbLine
 10
-781.2274343563
 20
2020.1837526061
 30
0.0
 11
-781.2274343563
 21
2013.5336772897
 31
0.0
  0
LINE
  5
453
330
1F
100
AcDbEntity
  8
0
  6
Continuous
 62
     7
370
    15
100
AcDbLine
 10
-778.379870881
 20
2002.1630631187
 30
0.0
 11
-778.3836846469
 21
2002.0604537227
 31
0.0
  0
SPLINE
  5
454
330
1F
100
AcDbEntity
  8
0
  6
Continuous
 62
     7
370
    15
100
AcDbSpline
210
0.0
220
0.0
230
1.0
 70
     8
 71
     3
 72
     9
 73
     5
 74
     0
 42
0.000000001
 43
0.00000001
 40
0.0
 40
0.0
 40
0.0
 40
0.0
 40
0.5408189797151788
 40
1.0
 40
1.0
 40
1.0
 40
1.0
 10
-778.3836846469173
 20
2006.926249096592
 30
0.0
 10
-778.3705198118398
 20
2007.156838867619
 30
0.0
 10
-778.3461774060233
 20
2007.583210314768
 30
0.0
 10
-778.36923106268
 20
2008.007958968608
 30
0.0
 10
-778.379816864265
 20
2008.202995488842
 30
0.0
  0
SPLINE
  5
455
330
1F
100
AcDbEntity
  8
0
  6
Continuous
 62
     7
370
    15
100
AcDbSpline
210
0.0
220
0.0
230
1.0
 70
     8
 71
     3
 72
     9
 73
     5
 74
     0
 42
0.000000001
 43
0.00000001
 40
0.0
 40
0.0
 40
0.0
 40
0.0
 40
0.4999980427884678
 40
1.0
 40
1.0
 40
1.0
 40
1.0
 10
-778.3836846469173
 20
2003.802965710362
 30
0.0
 10
-778.3708687504125
 20
2004.323543762458
 30
0.0
 10
-778.3452368570689
 20
2005.364703942192
 30
0.0
 10
-778.3708686835232
 20
2006.405732686783
 30
0.0
 10
-778.3836846469173
 20
2006.926249096592
 30
0.0
  0
SPLINE
  5
456
330
1F
100
AcDbEntity
  8
0
  6
Continuous
 62
     7
370
    15
100
AcDbSpline
210
0.0
220
0.0
230
1.0
 70
     8
 71
     3
 72
     9
 73
     5
 74
     0
 42
0.000000001
 43
0.00000001
 40
0.0
 40
0.0
 40
0.0
 40
0.0
 40
0.500012434984231
 40
0.9999999999999999
 40
0.9999999999999999
 40
0.9999999999999999
 40
0.9999999999999999
 10
-778.3836846469173
 20
2002.060453722676
 30
0.0
 10
-778.3708685044749
 20
2002.350458987032
 30
0.0
 10
-778.3452368570482
 20
2002.930455091259
 30
0.0
 10
-778.3708689294505
 20
2003.512133659437
 30
0.0
 10
-778.3836846469173
 20
2003.802965710362
 30
0.0
  0
LINE
  5
457
330
1F
100
AcDbEntity
  8
0
  6
Continuous
 62
     7
370
    15
100
AcDbLine
 10
-781.2274343563
 20
2046.2478728392
 30
0.0
 11
-781.2274343563
 21
2045.1837585666
 31
0.0
  0
LINE
  5
458
330
1F
100
AcDbEntity
  8
0
  6
Continuous
 62
     7
370
    15
100
AcDbLine
 10
-781.2274343563
 20
2075.1837523081
 30
0.0
 11
-781.2274343563
 21
2046.2478728392
 31
0.0
  0
SPLINE
  5
459
330
1F
100
AcDbEntity
  8
0
  6
Continuous
 62
     7
370
    15
100
AcDbSpline
210
0.0
220
0.0
230
1.0
 70
     8
 71
     3
 72
     9
 73
     5
 74
     0
 42
0.000000001
 43
0.00000001
 40
0.0
 40
0.0
 40
0.0
 40
0.0
 40
0.7320903450544368
 40
1.0
 40
1.0
 40
1.0
 40
1.0
 10
-778.3757320834527
 20
2062.711011002262
 30
0.0
 10
-778.3655246603607
 20
2062.42880020017
 30
0.0
 10
-778.351581814152
 20
2062.043313895099
 30
0.0
 10
-778.3617882754263
 20
2061.657300418749
 30
0.0
 10
-778.3645226849446
 20
2061.553883681496
 30
0.0
  0
SPLINE
  5
45A
330
1F
100
AcDbEntity
  8
0
  6
Continuous
 62
     7
370
    15
100
AcDbSpline
210
0.0
220
0.0
230
1.0
 70
     8
 71
     3
 72
     9
 73
     5
 74
     0
 42
0.000000001
 43
0.00000001
 40
0.0
 40
0.0
 40
0.0
 40
0.0
 40
0.7982970385268304
 40
1.0
 40
1.0
 40
1.0
 40
1.0
 10
-778.3836846469173
 20
2062.640699873169
 30
0.0
 10
-778.3683205169274
 20
2062.716498630539
 30
0.0
 10
-778.3490743851639
 20
2062.811449198699
 30
0.0
 10
-778.3619343748715
 20
2062.905165041901
 30
0.0
 10
-778.3645282728801
 20
2062.924067805012
 30
0.0
  0
SPLINE
  5
45B
330
1F
100
AcDbEntity
  8
0
  6
Continuous
 62
     7
370
    15
100
AcDbSpline
210
0.0
220
0.0
230
1.0
 70
     8
 71
     3
 72
     9
 73
     5
 74
     0
 42
0.000000001
 43
0.00000001
 40
0.0
 40
0.0
 40
0.0
 40
0.0
 40
0.4999991769625437
 40
1.0
 40
1.0
 40
1.0
 40
1.0
 10
-778.3836846469173
 20
2059.732499847611
 30
0.0
 10
-778.3708687310319
 20
2060.21738278982
 30
0.0
 10
-778.3452368570694
 20
2061.187150270548
 30
0.0
 10
-778.370868702904
 20
2062.156182807262
 30
0.0
 10
-778.3836846469173
 20
2062.640699873169
 30
0.0
  0
SPLINE
  5
45C
330
1F
100
AcDbEntity
  8
0
  6
Continuous
 62
     7
370
    15
100
AcDbSpline
210
0.0
220
0.0
230
1.0
 70
     8
 71
     3
 72
     9
 73
     5
 74
     0
 42
0.000000001
 43
0.00000001
 40
0.0
 40
0.0
 40
0.0
 40
0.0
 40
0.5000060862567864
 40
1.0
 40
1.0
 40
1.0
 40
1.0
 10
-778.3836846469173
 20
2057.275551686485
 30
0.0
 10
-778.3708686129653
 20
2057.68473507806
 30
0.0
 10
-778.3452368570644
 20
2058.503091899748
 30
0.0
 10
-778.3708688209681
 20
2059.322700523889
 30
0.0
 10
-778.3836846469173
 20
2059.732499847611
 30
0.0
  0
LINE
  5
45D
330
1F
100
AcDbEntity
  8
0
  6
Continuous
 62
     7
370
    15
100
AcDbLine
 10
-778.3645254789
 20
2057.443472872
 30
0.0
 11
-778.3836846469
 21
2057.2755516865
 31
0.0
  0
SPLINE
  5
45E
330
1F
100
AcDbEntity
  8
0
  6
Continuous
 62
     7
370
    15
100
AcDbSpline
210
0.0
220
0.0
230
1.0
 70
     8
 71
     3
 72
     9
 73
     5
 74
     0
 42
0.000000001
 43
0.00000001
 40
0.0
 40
0.0
 40
0.0
 40
0.0
 40
0.7321123819483548
 40
0.9999999999999999
 40
0.9999999999999999
 40
0.9999999999999999
 40
0.9999999999999999
 10
-778.3757320834527
 20
2060.183759162624
 30
0.0
 10
-778.3655242880934
 20
2059.849298889827
 30
0.0
 10
-778.3515813530865
 20
2059.392456086666
 30
0.0
 10
-778.3617883554058
 20
2058.935925961084
 30
0.0
 10
-778.3645226849446
 20
2058.813627193173
 30
0.0
  0
LINE
  5
45F
330
1F
100
AcDbEntity
  8
0
  6
Continuous
 62
     7
370
    15
100
AcDbLine
 10
-773.727433127
 20
2181.3837563046
 30
0.0
 11
-773.727433127
 21
2210.9837563135
 31
0.0
  0
LINE
  5
460
330
1F
100
AcDbEntity
  8
0
  6
Continuous
 62
     7
370
    15
100
AcDbLine
 10
-770.86858761
 20
2199.0705051817
 30
0.0
 11
-770.86858761
 21
2197.6271302797
 31
0.0
  0
SPLINE
  5
461
330
1F
100
AcDbEntity
  8
0
  6
Continuous
 62
     7
370
    15
100
AcDbSpline
210
0.0
220
0.0
230
1.0
 70
     8
 71
     3
 72
     9
 73
     5
 74
     0
 42
0.000000001
 43
0.00000001
 40
0.0
 40
0.0
 40
0.0
 40
0.0
 40
0.4999999999999999
 40
0.9999999999999999
 40
0.9999999999999999
 40
0.9999999999999999
 40
0.9999999999999999
 10
-770.8685876099596
 20
2197.62713027974
 30
0.0
 10
-770.8571095248888
 20
2197.146005312403
 30
0.0
 10
-770.8341533547471
 20
2196.18375537773
 30
0.0
 10
-770.8571095248888
 20
2195.221505443056
 30
0.0
 10
-770.8685876099596
 20
2194.74038047572
 30
0.0
  0
LINE
  5
462
330
1F
100
AcDbEntity
  8
0
  6
Continuous
 62
     7
370
    15
100
AcDbLine
 10
-770.86858761
 20
2194.7403804757
 30
0.0
 11
-770.86858761
 21
2193.2970055737
 31
0.0
  0
LINE
  5
463
330
1F
100
AcDbEntity
  8
0
  6
Continuous
 62
     7
370
    15
100
AcDbLine
 10
-801.5274352623
 20
2020.1837526061
 30
0.0
 11
-801.5274352623
 21
1990.183751414
 31
0.0
  0
LINE
  5
464
330
1F
100
AcDbEntity
  8
0
  6
Continuous
 62
     7
370
    15
100
AcDbLine
 10
-792.427433957
 20
1990.183751414
 30
0.0
 11
-792.427433957
 21
2020.1837526061
 31
0.0
  0
LINE
  5
465
330
1F
100
AcDbEntity
  8
0
  6
Continuous
 62
     7
370
    15
100
AcDbLine
 10
-792.2274342967
 20
2019.9837492206
 30
0.0
 11
-792.2274342967
 21
1990.3837547996
 31
0.0
  0
LINE
  5
466
330
1F
100
AcDbEntity
  8
0
  6
Continuous
 62
     7
370
    15
100
AcDbLine
 10
-792.2274342967
 20
2074.9837563731
 30
0.0
 11
-792.2274342967
 21
2045.3837545015
 31
0.0
  0
LINE
  5
467
330
1F
100
AcDbEntity
  8
0
  6
Continuous
 62
     7
370
    15
100
AcDbLine
 10
-792.427433957
 20
2045.1837585666
 30
0.0
 11
-792.427433957
 21
2075.1837523081
 31
0.0
  0
LINE
  5
468
330
1F
100
AcDbEntity
  8
0
  6
Continuous
 62
     7
370
    15
100
AcDbLine
 10
-801.5274352623
 20
2075.1837523081
 30
0.0
 11
-801.5274352623
 21
2045.1837585666
 31
0.0
  0
LINE
  5
469
330
1F
100
AcDbEntity
  8
0
  6
Continuous
 62
     7
370
    15
100
AcDbLine
 10
-774.227433209
 20
2225.1453132727
 30
0.0
 11
-774.227433209
 21
2225.1837582686
 31
0.0
  0
LINE
  5
46A
330
1F
100
AcDbEntity
  8
0
  6
Continuous
 62
     7
370
    15
100
AcDbLine
 10
-774.227433209
 20
2173.6837563463
 30
0.0
 11
-774.227433209
 21
2225.1453132727
 31
0.0
  0
LINE
  5
46B
330
1F
100
AcDbEntity
  8
0
  6
Continuous
 62
     7
370
    15
100
AcDbLine
 10
-775.7274334548
 20
2225.1453132727
 30
0.0
 11
-775.7274334548
 21
2225.1837582686
 31
0.0
  0
LINE
  5
46C
330
1F
100
AcDbEntity
  8
0
  6
Continuous
 62
     7
370
    15
100
AcDbLine
 10
-775.7274334548
 20
2173.6837563463
 30
0.0
 11
-775.7274334548
 21
2225.1453132727
 31
0.0
  0
LINE
  5
46D
330
1F
100
AcDbEntity
  8
0
  6
Continuous
 62
     7
370
    15
100
AcDbLine
 10
-793.7274336113
 20
2225.1837582686
 30
0.0
 11
-793.7274336113
 21
2173.6837563463
 31
0.0
  0
LINE
  5
46E
330
1F
100
AcDbEntity
  8
0
  6
Continuous
 62
     7
370
    15
100
AcDbLine
 10
-795.2274329258
 20
2225.1837582686
 30
0.0
 11
-795.2274329258
 21
2173.6837563463
 31
0.0
  0
LINE
  5
46F
330
1F
100
AcDbEntity
  8
0
  6
Continuous
 62
     7
370
    15
100
AcDbLine
 10
-775.7274334548
 20
2225.1837582686
 30
0.0
 11
-775.7274334548
 21
2173.6837563463
 31
0.0
  0
LINE
  5
470
330
1F
100
AcDbEntity
  8
0
  6
Continuous
 62
     7
370
    15
100
AcDbLine
 10
-776.7478621794
 20
2225.1837582686
 30
0.0
 11
-776.7478621794
 21
2173.6837563463
 31
0.0
  0
LINE
  5
471
330
1F
100
AcDbEntity
  8
0
  6
Continuous
 62
     7
370
    15
100
AcDbLine
 10
-792.7591077281
 20
2173.6837563463
 30
0.0
 11
-792.7591077281
 21
2225.1837582686
 31
0.0
  0
LINE
  5
472
330
1F
100
AcDbEntity
  8
0
  6
Continuous
 62
     7
370
    15
100
AcDbLine
 10
-795.7274339391
 20
2210.8837546208
 30
0.0
 11
-795.7274339391
 21
2181.4837561347
 31
0.0
  0
LINE
  5
473
330
1F
100
AcDbEntity
  8
0
  6
Continuous
 62
     7
370
    15
100
AcDbLine
 10
-796.0274352921
 20
2181.1837547817
 30
0.0
 11
-796.0274352921
 21
2211.1837559738
 31
0.0
  0
LINE
  5
474
330
1F
100
AcDbEntity
  8
0
  6
Continuous
 62
     7
370
    15
100
AcDbLine
 10
-801.4274335696
 20
2211.1837559738
 30
0.0
 11
-801.4274335696
 21
2181.1837547817
 31
0.0
  0
LINE
  5
475
330
1F
100
AcDbEntity
  8
0
  6
Continuous
 62
     7
370
    15
100
AcDbLine
 10
-773.727433127
 20
2128.1837554075
 30
0.0
 11
-773.727433127
 21
2141.6837548264
 31
0.0
  0
LINE
  5
476
330
1F
100
AcDbEntity
  8
0
  6
Continuous
 62
     7
370
    15
100
AcDbLine
 10
-801.5274352623
 20
2137.6837560334
 30
0.0
 11
-801.5274352623
 21
2128.1837554075
 31
0.0
  0
LINE
  5
477
330
1F
100
AcDbEntity
  8
0
  6
Continuous
 62
     7
370
    15
100
AcDbLine
 10
-772.7274338944
 20
2141.6837548264
 30
0.0
 11
-772.7274338944
 21
2129.1837555714
 31
0.0
  0
LINE
  5
478
330
1F
100
AcDbEntity
  8
0
  6
Continuous
 62
     7
370
    15
100
AcDbLine
 10
-803.1174338652
 20
1989.1837493875
 30
0.0
 11
-806.3374332382
 21
1989.1837493875
 31
0.0
  0
LINE
  5
479
330
1F
100
AcDbEntity
  8
0
  6
Continuous
 62
     7
370
    15
100
AcDbLine
 10
-807.7274321808
 20
2196.1837553777
 30
0.0
 11
-807.7274321808
 21
2210.9837563135
 31
0.0
  0
LINE
  5
47A
330
1F
100
AcDbEntity
  8
0
  6
Continuous
 62
     7
370
    15
100
AcDbLine
 10
-807.5274325205
 20
2211.1837559738
 30
0.0
 11
-807.5274325205
 21
2196.1837553777
 31
0.0
  0
LINE
  5
47B
330
1F
100
AcDbEntity
  8
0
  6
Continuous
 62
     7
370
    15
100
AcDbLine
 10
-807.7274321808
 20
2196.1837553777
 30
0.0
 11
-807.5274325205
 21
2196.1837553777
 31
0.0
  0
LINE
  5
47C
330
1F
100
AcDbEntity
  8
0
  6
Continuous
 62
     7
370
    15
100
AcDbLine
 10
-807.5274325205
 20
2004.1837499835
 30
0.0
 11
-807.5274325205
 21
1989.1837493875
 31
0.0
  0
LINE
  5
47D
330
1F
100
AcDbEntity
  8
0
  6
Continuous
 62
     7
370
    15
100
AcDbLine
 10
-801.9274345828
 20
2004.1837499835
 30
0.0
 11
-807.5274325205
 21
2004.1837499835
 31
0.0
  0
LINE
  5
47E
330
1F
100
AcDbEntity
  8
0
  6
Continuous
 62
     7
370
    15
100
AcDbLine
 10
-801.9274345828
 20
1989.1837493875
 30
0.0
 11
-801.9274345828
 21
2004.1837499835
 31
0.0
  0
ARC
  5
47F
330
1F
100
AcDbEntity
  8
0
  6
Continuous
 62
     7
370
    15
100
AcDbCircle
 10
-804.7273695128
 20
1974.2468262306
 30
0.0
 40
15.02777322779176
100
AcDbArc
 50
83.6966418309
 51
96.2247335954
  0
LINE
  5
480
330
1F
100
AcDbEntity
  8
0
  6
Continuous
 62
     7
370
    15
100
AcDbLine
 10
-801.9274345828
 20
2196.1837553777
 30
0.0
 11
-801.9274345828
 21
2211.1837559738
 31
0.0
  0
LINE
  5
481
330
1F
100
AcDbEntity
  8
0
  6
Continuous
 62
     7
370
    15
100
AcDbLine
 10
-801.9274345828
 20
2196.1837553777
 30
0.0
 11
-807.5274325205
 21
2196.1837553777
 31
0.0
  0
LINE
  5
482
330
1F
100
AcDbEntity
  8
0
  6
Continuous
 62
     7
370
    15
100
AcDbLine
 10
-801.7274349226
 20
2210.9837563135
 30
0.0
 11
-801.7274349226
 21
2196.1837553777
 31
0.0
  0
LINE
  5
483
330
1F
100
AcDbEntity
  8
0
  6
Continuous
 62
     7
370
    15
100
AcDbLine
 10
-801.7274349226
 20
2196.1837553777
 30
0.0
 11
-801.9274345828
 21
2196.1837553777
 31
0.0
  0
LINE
  5
484
330
1F
100
AcDbEntity
  8
0
  6
Continuous
 62
     7
370
    15
100
AcDbLine
 10
-801.7274349226
 20
2196.1837553777
 30
0.0
 11
-801.7274349226
 21
2177.6837551393
 31
0.0
  0
LINE
  5
485
330
1F
100
AcDbEntity
  8
0
  6
Continuous
 62
     7
370
    15
100
AcDbLine
 10
-801.7274349226
 20
2137.6837560334
 30
0.0
 11
-801.7274349226
 21
2004.1837499835
 31
0.0
  0
LINE
  5
486
330
1F
100
AcDbEntity
  8
0
  6
Continuous
 62
     7
370
    15
100
AcDbLine
 10
-801.9274345828
 20
2004.1837499835
 30
0.0
 11
-801.7274349226
 21
2004.1837499835
 31
0.0
  0
LINE
  5
487
330
1F
100
AcDbEntity
  8
0
  6
Continuous
 62
     7
370
    15
100
AcDbLine
 10
-801.9274345828
 20
2004.1837499835
 30
0.0
 11
-801.9274345828
 21
2137.6837560334
 31
0.0
  0
LINE
  5
488
330
1F
100
AcDbEntity
  8
0
  6
Continuous
 62
     7
370
    15
100
AcDbLine
 10
-801.9274345828
 20
2177.6837551393
 30
0.0
 11
-801.9274345828
 21
2196.1837553777
 31
0.0
  0
LINE
  5
489
330
1F
100
AcDbEntity
  8
0
  6
Continuous
 62
     7
370
    15
100
AcDbLine
 10
-801.7274349226
 20
2004.1837499835
 30
0.0
 11
-801.7274349226
 21
1989.383752773
 31
0.0
  0
LINE
  5
48A
330
1F
100
AcDbEntity
  8
0
  6
Continuous
 62
     7
370
    15
100
AcDbLine
 10
-807.7274321808
 20
1989.383752773
 30
0.0
 11
-807.7274321808
 21
2004.1837499835
 31
0.0
  0
LINE
  5
48B
330
1F
100
AcDbEntity
  8
0
  6
Continuous
 62
     7
370
    15
100
AcDbLine
 10
-807.5274325205
 20
2004.1837499835
 30
0.0
 11
-807.7274321808
 21
2004.1837499835
 31
0.0
  0
LINE
  5
48C
330
1F
100
AcDbEntity
  8
0
  6
Continuous
 62
     7
370
    15
100
AcDbLine
 10
-807.5274325205
 20
2196.1837553777
 30
0.0
 11
-807.5274325205
 21
2177.6837551393
 31
0.0
  0
LINE
  5
48D
330
1F
100
AcDbEntity
  8
0
  6
Continuous
 62
     7
370
    15
100
AcDbLine
 10
-807.5274325205
 20
2137.6837560334
 30
0.0
 11
-807.5274325205
 21
2004.1837499835
 31
0.0
  0
LINE
  5
48E
330
1F
100
AcDbEntity
  8
0
  6
Continuous
 62
     7
370
    15
100
AcDbLine
 10
-807.7274321808
 20
2004.1837499835
 30
0.0
 11
-807.7274321808
 21
2137.6837560334
 31
0.0
  0
LINE
  5
48F
330
1F
100
AcDbEntity
  8
0
  6
Continuous
 62
     7
370
    15
100
AcDbLine
 10
-807.7274321808
 20
2177.6837551393
 30
0.0
 11
-807.7274321808
 21
2196.1837553777
 31
0.0
  0
LINE
  5
490
330
1F
100
AcDbEntity
  8
0
  6
Continuous
 62
     7
370
    15
100
AcDbLine
 10
-794.2274327619
 20
62.9338280656
 30
0.0
 11
-793.227432598
 21
62.9338280656
 31
0.0
  0
LINE
  5
491
330
1F
100
AcDbEntity
  8
0
  6
Continuous
 62
     7
370
    15
100
AcDbLine
 10
-794.2274327619
 20
62.9338280656
 30
0.0
 11
-794.2274327619
 21
76.9337670304
 31
0.0
  0
LINE
  5
492
330
1F
100
AcDbEntity
  8
0
  6
Continuous
 62
     7
370
    15
100
AcDbLine
 10
-793.227432598
 20
62.9338280656
 30
0.0
 11
-793.227432598
 21
76.9337670304
 31
0.0
  0
LINE
  5
493
330
1F
100
AcDbEntity
  8
0
  6
Continuous
 62
     7
370
    15
100
AcDbLine
 10
-780.2274341924
 20
62.9338280656
 30
0.0
 11
-780.2274341924
 21
76.9337670304
 31
0.0
  0
LINE
  5
494
330
1F
100
AcDbEntity
  8
0
  6
Continuous
 62
     7
370
    15
100
AcDbLine
 10
-779.2274330972
 20
62.9338280656
 30
0.0
 11
-779.2274330972
 21
76.9337670304
 31
0.0
  0
LINE
  5
495
330
1F
100
AcDbEntity
  8
0
  6
Continuous
 62
     7
370
    15
100
AcDbLine
 10
-780.2274341924
 20
62.9338280656
 30
0.0
 11
-779.2274330972
 21
62.9338280656
 31
0.0
  0
LINE
  5
496
330
1F
100
AcDbEntity
  8
0
  6
Continuous
 62
     7
370
    15
100
AcDbLine
 10
-777.2274337007
 20
58.1838147142
 30
0.0
 11
-777.2274337007
 21
77.1838681199
 31
0.0
  0
LINE
  5
497
330
1F
100
AcDbEntity
  8
0
  6
Continuous
 62
     7
370
    15
100
AcDbLine
 10
-796.2274349524
 20
58.1838147142
 30
0.0
 11
-777.2274337007
 21
58.1838147142
 31
0.0
  0
LINE
  5
498
330
1F
100
AcDbEntity
  8
0
  6
Continuous
 62
     7
370
    15
100
AcDbLine
 10
-796.2274349524
 20
77.1838681199
 30
0.0
 11
-796.2274349524
 21
58.1838147142
 31
0.0
  0
LINE
  5
499
330
1F
100
AcDbEntity
  8
0
  6
Continuous
 62
     7
370
    15
100
AcDbLine
 10
-794.7274337752
 20
60.6953160264
 30
0.0
 11
-794.7274337752
 21
77.1838681199
 31
0.0
  0
LINE
  5
49A
330
1F
100
AcDbEntity
  8
0
  6
Continuous
 62
     7
370
    15
100
AcDbLine
 10
-778.7274330152
 20
60.6953160264
 30
0.0
 11
-794.7274337752
 21
60.6953160264
 31
0.0
  0
LINE
  5
49B
330
1F
100
AcDbEntity
  8
0
  6
Continuous
 62
     7
370
    15
100
AcDbLine
 10
-778.7274330152
 20
77.1838681199
 30
0.0
 11
-778.7274330152
 21
60.6953160264
 31
0.0
  0
LINE
  5
49C
330
1F
100
AcDbEntity
  8
0
  6
Continuous
 62
     7
370
    15
100
AcDbLine
 10
-777.2274337007
 20
57.1836487748
 30
0.0
 11
-777.2274337007
 21
58.1838147142
 31
0.0
  0
LINE
  5
49D
330
1F
100
AcDbEntity
  8
0
  6
Continuous
 62
     7
370
    15
100
AcDbLine
 10
-796.2274349524
 20
58.1838147142
 30
0.0
 11
-796.2274349524
 21
57.1836487748
 31
0.0
  0
LINE
  5
49E
330
1F
100
AcDbEntity
  8
0
  6
Continuous
 62
     7
370
    15
100
AcDbLine
 10
-796.2274349524
 20
57.1836487748
 30
0.0
 11
-777.2274337007
 21
57.1836487748
 31
0.0
  0
LINE
  5
49F
330
1F
100
AcDbEntity
  8
0
  6
Continuous
 62
     7
370
    15
100
AcDbLine
 10
-776.7274336187
 20
58.1838147142
 30
0.0
 11
-777.2274337007
 21
58.1838147142
 31
0.0
  0
LINE
  5
4A0
330
1F
100
AcDbEntity
  8
0
  6
Continuous
 62
     7
370
    15
100
AcDbLine
 10
-776.7274336187
 20
58.1838147142
 30
0.0
 11
-776.7274336187
 21
57.1836487748
 31
0.0
  0
LINE
  5
4A1
330
1F
100
AcDbEntity
  8
0
  6
Continuous
 62
     7
370
    15
100
AcDbLine
 10
-776.7274336187
 20
57.1836487748
 30
0.0
 11
-777.2274337007
 21
57.1836487748
 31
0.0
  0
LINE
  5
4A2
330
1F
100
AcDbEntity
  8
0
  6
Continuous
 62
     7
370
    15
100
AcDbLine
 10
-776.7274336187
 20
76.683665941
 30
0.0
 11
-776.7274336187
 21
58.1838147142
 31
0.0
  0
LINE
  5
4A3
330
1F
100
AcDbEntity
  8
0
  6
Continuous
 62
     7
370
    15
100
AcDbLine
 10
-796.2274349524
 20
58.1838147142
 30
0.0
 11
-796.7274322404
 21
58.1838147142
 31
0.0
  0
LINE
  5
4A4
330
1F
100
AcDbEntity
  8
0
  6
Continuous
 62
     7
370
    15
100
AcDbLine
 10
-796.7274322404
 20
58.1838147142
 30
0.0
 11
-796.7274322404
 21
76.683665941
 31
0.0
  0
LINE
  5
4A5
330
1F
100
AcDbEntity
  8
0
  6
Continuous
 62
     7
370
    15
100
AcDbLine
 10
-796.7274322404
 20
57.1836487748
 30
0.0
 11
-796.7274322404
 21
58.1838147142
 31
0.0
  0
LINE
  5
4A6
330
1F
100
AcDbEntity
  8
0
  6
Continuous
 62
     7
370
    15
100
AcDbLine
 10
-796.2274349524
 20
57.1836487748
 30
0.0
 11
-796.7274322404
 21
57.1836487748
 31
0.0
  0
LINE
  5
4A7
330
1F
100
AcDbEntity
  8
0
  6
Continuous
 62
     7
370
    15
100
AcDbLine
 10
-794.2274327619
 20
61.183835695
 30
0.0
 11
-779.2274330972
 21
61.183835695
 31
0.0
  0
LINE
  5
4A8
330
1F
100
AcDbEntity
  8
0
  6
Continuous
 62
     7
370
    15
100
AcDbLine
 10
-779.2274330972
 20
61.1049191453
 30
0.0
 11
-778.7274330152
 21
60.6953160264
 31
0.0
  0
LINE
  5
4A9
330
1F
100
AcDbEntity
  8
0
  6
Continuous
 62
     7
370
    15
100
AcDbLine
 10
-794.7274337752
 20
60.6953160264
 30
0.0
 11
-794.2274327619
 21
61.1049191453
 31
0.0
  0
LINE
  5
4AA
330
1F
100
AcDbEntity
  8
0
  6
Continuous
 62
     7
370
    15
100
AcDbLine
 10
-779.2274330972
 20
61.1049191453
 30
0.0
 11
-779.2274330972
 21
62.9338280656
 31
0.0
  0
LINE
  5
4AB
330
1F
100
AcDbEntity
  8
0
  6
Continuous
 62
     7
370
    15
100
AcDbLine
 10
-794.2274327619
 20
62.9338280656
 30
0.0
 11
-794.2274327619
 21
61.1049191453
 31
0.0
  0
SPLINE
  5
4AC
330
1F
100
AcDbEntity
  8
0
  6
Continuous
 62
     7
370
    15
100
AcDbSpline
210
0.0
220
0.0
230
1.0
 70
     8
 71
     3
 72
     9
 73
     5
 74
     0
 42
0.000000001
 43
0.00000001
 40
0.0
 40
0.0
 40
0.0
 40
0.0
 40
0.5824611531935914
 40
1.0
 40
1.0
 40
1.0
 40
1.0
 10
-812.1711819661983
 20
2155.779150862669
 30
0.0
 10
-812.1847030882436
 20
2155.57881563081
 30
0.0
 10
-812.2079168630527
 20
2155.234869548293
 30
0.0
 10
-812.1871242716334
 20
2154.892602679442
 30
0.0
 10
-812.17844255699
 20
2154.749692965721
 30
0.0
  0
SPLINE
  5
4AD
330
1F
100
AcDbEntity
  8
0
  6
Continuous
 62
     7
370
    15
100
AcDbSpline
210
0.0
220
0.0
230
1.0
 70
     8
 71
     3
 72
     9
 73
     5
 74
     0
 42
0.000000001
 43
0.00000001
 40
0.0
 40
0.0
 40
0.0
 40
0.0
 40
0.5000010932968474
 40
1.0
 40
1.0
 40
1.0
 40
1.0
 10
-812.1711819661983
 20
2158.882802434688
 30
0.0
 10
-812.1839988461538
 20
2158.365463447768
 30
0.0
 10
-812.2096325500141
 20
2157.330787736342
 30
0.0
 10
-812.1839988087868
 20
2156.296362399938
 30
0.0
 10
-812.1711819661983
 20
2155.779150862669
 30
0.0
  0
SPLINE
  5
4AE
330
1F
100
AcDbEntity
  8
0
  6
Continuous
 62
     7
370
    15
100
AcDbSpline
210
0.0
220
0.0
230
1.0
 70
     8
 71
     3
 72
     9
 73
     5
 74
     0
 42
0.000000001
 43
0.00000001
 40
0.0
 40
0.0
 40
0.0
 40
0.0
 40
0.4999987052023287
 40
1.0
 40
1.0
 40
1.0
 40
1.0
 10
-812.1711819661983
 20
2160.787407158365
 30
0.0
 10
-812.1839988053433
 20
2160.470364654661
 30
0.0
 10
-812.2096325500141
 20
2159.836278005224
 30
0.0
 10
-812.1839988495973
 20
2159.200628173559
 30
0.0
 10
-812.1711819661983
 20
2158.882802434688
 30
0.0
  0
LINE
  5
4AF
330
1F
100
AcDbEntity
  8
0
  6
Continuous
 62
     7
370
    15
100
AcDbLine
 10
-812.1784053041
 20
2160.6187271778
 30
0.0
 11
-812.1711819662
 21
2160.7874071584
 31
0.0
  0
LINE
  5
4B0
330
1F
100
AcDbEntity
  8
0
  6
Continuous
 62
     7
370
    15
100
AcDbLine
 10
-809.3274331881
 20
2153.1504200198
 30
0.0
 11
-809.3274331881
 21
2177.6837551393
 31
0.0
  0
LINE
  5
4B1
330
1F
100
AcDbEntity
  8
0
  6
Continuous
 62
     7
370
    15
100
AcDbLine
 10
-809.3274331881
 20
2137.6837560334
 30
0.0
 11
-809.3274331881
 21
2153.1504200198
 31
0.0
  0
LINE
  5
4B2
330
1F
100
AcDbEntity
  8
0
  6
Continuous
 62
     7
370
    15
100
AcDbLine
 10
-801.3274318768
 20
2153.1504200198
 30
0.0
 11
-801.3274318768
 21
2177.6837551393
 31
0.0
  0
LINE
  5
4B3
330
1F
100
AcDbEntity
  8
0
  6
Continuous
 62
     7
370
    15
100
AcDbLine
 10
-801.3274318768
 20
2137.6837560334
 30
0.0
 11
-801.3274318768
 21
2153.1504200198
 31
0.0
  0
LINE
  5
4B4
330
1F
100
AcDbEntity
  8
0
  6
Continuous
 62
     7
370
    15
100
AcDbLine
 10
-772.127433051
 20
2157.6837555863
 30
0.0
 11
-772.332963836
 21
2156.2635684046
 31
0.0
  0
SPLINE
  5
4B5
330
1F
100
AcDbEntity
  8
0
  6
Continuous
 62
     7
370
    15
100
AcDbSpline
210
0.0
220
0.0
230
1.0
 70
     8
 71
     3
 72
     9
 73
     5
 74
     0
 42
0.000000001
 43
0.00000001
 40
0.0
 40
0.0
 40
0.0
 40
0.0
 40
0.5815601784819009
 40
1.0
 40
1.0
 40
1.0
 40
1.0
 10
-797.1987298919091
 20
2157.514024098942
 30
0.0
 10
-797.2496657476195
 20
2158.171455794302
 30
0.0
 10
-797.3372505885269
 20
2159.301917816436
 30
0.0
 10
-796.9838861888934
 20
2160.337934559642
 30
0.0
 10
-796.83602445258
 20
2160.771445220758
 30
0.0
  0
SPLINE
  5
4B6
330
1F
100
AcDbEntity
  8
0
  6
Continuous
 62
     7
370
    15
100
AcDbSpline
210
0.0
220
0.0
230
1.0
 70
     8
 71
     3
 72
     9
 73
     5
 74
     0
 42
0.000000001
 43
0.00000001
 40
0.0
 40
0.0
 40
0.0
 40
0.0
 40
0.415952896638585
 40
1.0
 40
1.0
 40
1.0
 40
1.0
 10
-772.4989096863399
 20
2160.266105633651
 30
0.0
 10
-772.3920186244562
 20
2159.922312667852
 30
0.0
 10
-772.1350398589582
 20
2159.095793683183
 30
0.0
 10
-772.1302377240096
 20
2158.204381998618
 30
0.0
 10
-772.127433051003
 20
2157.683755586346
 30
0.0
  0
LINE
  5
4B7
330
1F
100
AcDbEntity
  8
0
  6
Continuous
 62
     7
370
    15
100
AcDbLine
 10
-770.5274334407
 20
2157.6837555863
 30
0.0
 11
-770.5274334407
 21
2173.6837563463
 31
0.0
  0
LINE
  5
4B8
330
1F
100
AcDbEntity
  8
0
  6
Continuous
 62
     7
370
    15
100
AcDbLine
 10
-770.5274334407
 20
2141.6837548264
 30
0.0
 11
-770.5274334407
 21
2157.6837555863
 31
0.0
  0
LINE
  5
4B9
330
1F
100
AcDbEntity
  8
0
  6
Continuous
 62
     7
370
    15
100
AcDbLine
 10
-768.7274332388
 20
2157.6837555863
 30
0.0
 11
-768.7274332388
 21
2143.483755494
 31
0.0
  0
LINE
  5
4BA
330
1F
100
AcDbEntity
  8
0
  6
Continuous
 62
     7
370
    15
100
AcDbLine
 10
-768.7274332388
 20
2171.8837556787
 30
0.0
 11
-768.7274332388
 21
2157.6837555863
 31
0.0
  0
LINE
  5
4BB
330
1F
100
AcDbEntity
  8
0
  6
Continuous
 62
     7
370
    15
100
AcDbLine
 10
-734.227434103
 20
2153.6837553964
 30
0.0
 11
-734.227434103
 21
2161.6837557763
 31
0.0
  0
LINE
  5
4BC
330
1F
100
AcDbEntity
  8
0
  6
Continuous
 62
     7
370
    15
100
AcDbLine
 10
-724.2274343265
 20
2158.6837556338
 30
0.0
 11
-724.2274343265
 21
2156.6837555388
 31
0.0
  0
LINE
  5
4BD
330
1F
100
AcDbEntity
  8
0
  6
Continuous
 62
     7
370
    15
100
AcDbLine
 10
-766.2274335275
 20
2157.6837555863
 30
0.0
 11
-766.2274335275
 21
2127.6837562569
 31
0.0
  0
LINE
  5
4BE
330
1F
100
AcDbEntity
  8
0
  6
Continuous
 62
     7
370
    15
100
AcDbLine
 10
-766.2274335275
 20
2187.6837549158
 30
0.0
 11
-766.2274335275
 21
2157.6837555863
 31
0.0
  0
LINE
  5
4BF
330
1F
100
AcDbEntity
  8
0
  6
Continuous
 62
     7
370
    15
100
AcDbLine
 10
-764.2274334325
 20
2157.6837555863
 30
0.0
 11
-764.2274334325
 21
2187.6837549158
 31
0.0
  0
LINE
  5
4C0
330
1F
100
AcDbEntity
  8
0
  6
Continuous
 62
     7
370
    15
100
AcDbLine
 10
-764.2274334325
 20
2127.6837562569
 30
0.0
 11
-764.2274334325
 21
2157.6837555863
 31
0.0
  0
LINE
  5
4C1
330
1F
100
AcDbEntity
  8
0
  6
Continuous
 62
     7
370
    15
100
AcDbLine
 10
-768.2274336225
 20
2157.6837555863
 30
0.0
 11
-768.2274336225
 21
2172.6837552511
 31
0.0
  0
LINE
  5
4C2
330
1F
100
AcDbEntity
  8
0
  6
Continuous
 62
     7
370
    15
100
AcDbLine
 10
-768.2274336225
 20
2142.6837559216
 30
0.0
 11
-768.2274336225
 21
2157.6837555863
 31
0.0
  0
LINE
  5
4C3
330
1F
100
AcDbEntity
  8
0
  6
Continuous
 62
     8
370
    15
100
AcDbLine
 10
-778.2274338646
 20
2150.233755669
 30
0.0
 11
-778.2274338646
 21
2165.1337555036
 31
0.0
  0
LINE
  5
4C4
330
1F
100
AcDbEntity
  8
0
  6
Continuous
 62
     8
370
    15
100
AcDbLine
 10
-779.8974330766
 20
1990.183751414
 30
0.0
 11
-779.8974330766
 21
2020.1837526061
 31
0.0
  0
LINE
  5
4C5
330
1F
100
AcDbEntity
  8
0
  6
Continuous
 62
     8
370
    15
100
AcDbLine
 10
-779.7000224931
 20
2020.0158314206
 30
0.0
 11
-779.7000224931
 21
1990.3516725995
 31
0.0
  0
LINE
  5
4C6
330
1F
100
AcDbEntity
  8
0
  6
Continuous
 62
     8
370
    15
100
AcDbLine
 10
-779.7000224931
 20
2075.0158385732
 30
0.0
 11
-779.7000224931
 21
2045.3516723015
 31
0.0
  0
LINE
  5
4C7
330
1F
100
AcDbEntity
  8
0
  6
Continuous
 62
     8
370
    15
100
AcDbLine
 10
-779.8974330766
 20
2045.1837585666
 30
0.0
 11
-779.8974330766
 21
2075.1837523081
 31
0.0
  0
LINE
  5
4C8
330
1F
100
AcDbEntity
  8
0
  6
Continuous
 62
     8
370
    15
100
AcDbLine
 10
-772.3974327786
 20
2181.1837547817
 30
0.0
 11
-772.3974327786
 21
2211.1837559738
 31
0.0
  0
LINE
  5
4C9
330
1F
100
AcDbEntity
  8
0
  6
Continuous
 62
     8
370
    15
100
AcDbLine
 10
-773.5274334667
 20
2211.1837559738
 30
0.0
 11
-773.5274334667
 21
2181.1837547817
 31
0.0
  0
LINE
  5
4CA
330
1F
100
AcDbEntity
  8
0
  6
Continuous
 62
     8
370
    15
100
AcDbLine
 10
-772.2000221951
 20
2211.0158385136
 30
0.0
 11
-772.2000221951
 21
2181.3516741045
 31
0.0
  0
LINE
  5
4CB
330
1F
100
AcDbEntity
  8
0
  6
Continuous
 62
     8
370
    15
100
AcDbLine
 10
-773.9274337186
 20
2186.4337561079
 30
0.0
 11
-773.9274337186
 21
2205.9337565102
 31
0.0
  0
LINE
  5
4CC
330
1F
100
AcDbEntity
  8
0
  6
Continuous
 62
     8
370
    15
100
AcDbLine
 10
-809.2561460329
 20
2047.8498221733
 30
0.0
 11
-809.2561460329
 21
2072.5176887014
 31
0.0
  0
LINE
  5
4CD
330
1F
100
AcDbEntity
  8
0
  6
Continuous
 62
     8
370
    15
100
AcDbLine
 10
-809.0590446485
 20
2072.6837546923
 30
0.0
 11
-809.0590446485
 21
2047.6837561824
 31
0.0
  0
LINE
  5
4CE
330
1F
100
AcDbEntity
  8
0
  6
Continuous
 62
     8
370
    15
100
AcDbLine
 10
-809.0590446485
 20
2017.6837549903
 30
0.0
 11
-809.0590446485
 21
1992.6837490298
 31
0.0
  0
LINE
  5
4CF
330
1F
100
AcDbEntity
  8
0
  6
Continuous
 62
     8
370
    15
100
AcDbLine
 10
-809.2561460329
 20
1992.8498224713
 30
0.0
 11
-809.2561460329
 21
2017.51769645
 31
0.0
  0
LINE
  5
4D0
330
1F
100
AcDbEntity
  8
0
  6
Continuous
 62
     8
370
    15
100
AcDbLine
 10
-809.0590446485
 20
2137.6837560334
 30
0.0
 11
-809.0590446485
 21
2123.6837537386
 31
0.0
  0
LINE
  5
4D1
330
1F
100
AcDbEntity
  8
0
  6
Continuous
 62
     8
370
    15
100
AcDbLine
 10
-809.2561460329
 20
2123.8498197295
 30
0.0
 11
-809.2561460329
 21
2137.6837560334
 31
0.0
  0
LINE
  5
4D2
330
1F
100
AcDbEntity
  8
0
  6
Continuous
 62
     8
370
    15
100
AcDbLine
 10
-809.0590446485
 20
2196.1837553777
 30
0.0
 11
-809.0590446485
 21
2183.6837561228
 31
0.0
  0
LINE
  5
4D3
330
1F
100
AcDbEntity
  8
0
  6
Continuous
 62
     8
370
    15
100
AcDbLine
 10
-809.0590446485
 20
2208.6837546327
 30
0.0
 11
-809.0590446485
 21
2196.1837553777
 31
0.0
  0
LINE
  5
4D4
330
1F
100
AcDbEntity
  8
0
  6
Continuous
 62
     8
370
    15
100
AcDbLine
 10
-809.2561460329
 20
2196.1837553777
 30
0.0
 11
-809.2561460329
 21
2208.517692367
 31
0.0
  0
LINE
  5
4D5
330
1F
100
AcDbEntity
  8
0
  6
Continuous
 62
     8
370
    15
100
AcDbLine
 10
-809.2561460329
 20
2183.8498202511
 30
0.0
 11
-809.2561460329
 21
2196.1837553777
 31
0.0
  0
LINE
  5
4D6
330
1F
100
AcDbEntity
  8
0
  6
Continuous
 62
     8
370
    15
100
AcDbLine
 10
-810.6574326052
 20
2172.6837552511
 30
0.0
 11
-810.6574326052
 21
2142.6837559216
 31
0.0
  0
LINE
  5
4D7
330
1F
100
AcDbEntity
  8
0
  6
Continuous
 62
     8
370
    15
100
AcDbLine
 10
-810.8548431887
 20
2142.8516743131
 30
0.0
 11
-810.8548431887
 21
2172.5158368595
 31
0.0
  0
ENDSEC
  0
SECTION
  2
OBJECTS
  0
DICTIONARY
  5
C
330
0
100
AcDbDictionary
281
     1
  3
ACAD_GROUP
350
D
  3
ACAD_LAYOUT
350
1A
  3
ACAD_MLINESTYLE
350
17
  3
ACAD_PLOTSETTINGS
350
19
  3
ACAD_PLOTSTYLENAME
350
E
  3
ACAD_SCALELIST
350
47
  0
DICTIONARY
  5
D
102
{ACAD_REACTORS
330
C
102
}
330
C
100
AcDbDictionary
281
     1
  0
DICTIONARY
  5
1A
102
{ACAD_REACTORS
330
C
102
}
330
C
100
AcDbDictionary
281
     1
  3
Layout1
350
1E
  3
Layout2
350
26
  3
Model
350
22
  0
DICTIONARY
  5
17
102
{ACAD_REACTORS
330
C
102
}
330
C
100
AcDbDictionary
281
     1
  3
Standard
350
18
  0
DICTIONARY
  5
19
102
{ACAD_REACTORS
330
C
102
}
330
C
100
AcDbDictionary
281
     1
  0
ACDBDICTIONARYWDFLT
  5
E
102
{ACAD_REACTORS
330
C
102
}
330
C
100
AcDbDictionary
281
     1
  3
Normal
350
F
100
AcDbDictionaryWithDefault
340
F
  0
DICTIONARY
  5
47
102
{ACAD_REACTORS
330
C
102
}
330
C
100
AcDbDictionary
281
     1
  3
A0
350
48
  3
A1
350
49
  3
A2
350
4A
  3
A3
350
4B
  3
A4
350
4C
  3
A5
350
4D
  3
A6
350
4E
  3
A7
350
4F
  3
A8
350
50
  3
A9
350
51
  3
B0
350
52
  3
B1
350
53
  3
B2
350
54
  3
B3
350
55
  3
B4
350
56
  3
B5
350
57
  3
B6
350
58
  3
B7
350
59
  3
B8
350
5A
  3
B9
350
5B
  3
C0
350
5C
  3
C1
350
5D
  3
C2
350
5E
  3
C3
350
5F
  3
C4
350
60
  3
C5
350
61
  3
C6
350
62
  3
C7
350
63
  3
C8
350
64
  3
C9
350
65
  3
D0
350
66
  3
D1
350
67
  3
D2
350
68
  0
LAYOUT
  5
1E
102
{ACAD_REACTORS
330
1A
102
}
330
1A
100
AcDbPlotSettings
  1

  2
none_device
  4

  6

 40
0.0
 41
0.0
 42
0.0
 43
0.0
 44
0.0
 45
0.0
 46
0.0
 47
0.0
 48
0.0
 49
0.0
140
0.0
141
0.0
142
1.0
143
1.0
 70
   688
 72
     1
 73
     0
 74
     5
  7

 75
    16
147
1.0
148
0.0
149
0.0
100
AcDbLayout
  1
Layout1
 70
     1
 71
     1
 10
0.0
 20
0.0
 11
420.0
 21
297.0
 12
0.0
 22
0.0
 32
0.0
 14
1.0000000000E+20
 24
1.0000000000E+20
 34
1.0000000000E+20
 15
-1.0000000000E+20
 25
-1.0000000000E+20
 35
-1.0000000000E+20
146
0.0
 13
0.0
 23
0.0
 33
0.0
 16
1.0
 26
0.0
 36
0.0
 17
0.0
 27
1.0
 37
0.0
 76
     0
330
1B
  0
LAYOUT
  5
26
102
{ACAD_REACTORS
330
1A
102
}
330
1A
100
AcDbPlotSettings
  1

  2
none_device
  4

  6

 40
0.0
 41
0.0
 42
0.0
 43
0.0
 44
0.0
 45
0.0
 46
0.0
 47
0.0
 48
0.0
 49
0.0
140
0.0
141
0.0
142
1.0
143
1.0
 70
   688
 72
     1
 73
     0
 74
     5
  7

 75
    16
147
1.0
148
0.0
149
0.0
100
AcDbLayout
  1
Layout2
 70
     1
 71
     2
 10
0.0
 20
0.0
 11
0.0
 21
0.0
 12
0.0
 22
0.0
 32
0.0
 14
0.0
 24
0.0
 34
0.0
 15
0.0
 25
0.0
 35
0.0
146
0.0
 13
0.0
 23
0.0
 33
0.0
 16
1.0
 26
0.0
 36
0.0
 17
0.0
 27
1.0
 37
0.0
 76
     0
330
23
  0
LAYOUT
  5
22
102
{ACAD_REACTORS
330
1A
102
}
330
1A
100
AcDbPlotSettings
  1

  2
none_device
  4
Letter_(8.50_x_11.00_Inches)
  6

 40
6.35
 41
6.35
 42
6.35000508
 43
6.35000508
 44
215.9
 45
279.4
 46
0.0
 47
0.0
 48
0.0
 49
0.0
140
0.0
141
0.0
142
1.0
143
1.0
 70
  1712
 72
     1
 73
     0
 74
     0
  7

 75
     0
147
1.0
148
0.0
149
0.0
100
AcDbLayout
  1
Model
 70
     1
 71
     0
 10
0.0
 20
0.0
 11
431.8
 21
279.4
 12
0.0
 22
0.0
 32
0.0
 14
0.0
 24
0.0
 34
0.0
 15
431.8
 25
279.4
 35
0.0
146
0.0
 13
0.0
 23
0.0
 33
0.0
 16
1.0
 26
0.0
 36
0.0
 17
0.0
 27
1.0
 37
0.0
 76
     0
330
1F
331
29
  0
MLINESTYLE
  5
18
102
{ACAD_REACTORS
330
17
102
}
330
17
100
AcDbMlineStyle
  2
Standard
 70
     0
  3

 62
   256
 51
90.0
 52
90.0
 71
     2
 49
0.5
 62
   256
  6
BYLAYER
 49
-0.5
 62
   256
  6
BYLAYER
  0
ACDBPLACEHOLDER
  5
F
102
{ACAD_REACTORS
330
E
102
}
330
E
  0
SCALE
  5
48
102
{ACAD_REACTORS
330
47
102
}
330
47
100
AcDbScale
 70
     0
300
1:1
140
1.0
141
1.0
290
     1
  0
SCALE
  5
49
102
{ACAD_REACTORS
330
47
102
}
330
47
100
AcDbScale
 70
     0
300
1:2
140
1.0
141
2.0
290
     0
  0
SCALE
  5
4A
102
{ACAD_REACTORS
330
47
102
}
330
47
100
AcDbScale
 70
     0
300
1:4
140
1.0
141
4.0
290
     0
  0
SCALE
  5
4B
102
{ACAD_REACTORS
330
47
102
}
330
47
100
AcDbScale
 70
     0
300
1:5
140
1.0
141
5.0
290
     0
  0
SCALE
  5
4C
102
{ACAD_REACTORS
330
47
102
}
330
47
100
AcDbScale
 70
     0
300
1:8
140
1.0
141
8.0
290
     0
  0
SCALE
  5
4D
102
{ACAD_REACTORS
330
47
102
}
330
47
100
AcDbScale
 70
     0
300
1:10
140
1.0
141
10.0
290
     0
  0
SCALE
  5
4E
102
{ACAD_REACTORS
330
47
102
}
330
47
100
AcDbScale
 70
     0
300
1:16
140
1.0
141
16.0
290
     0
  0
SCALE
  5
4F
102
{ACAD_REACTORS
330
47
102
}
330
47
100
AcDbScale
 70
     0
300
1:20
140
1.0
141
20.0
290
     0
  0
SCALE
  5
50
102
{ACAD_REACTORS
330
47
102
}
330
47
100
AcDbScale
 70
     0
300
1:30
140
1.0
141
30.0
290
     0
  0
SCALE
  5
51
102
{ACAD_REACTORS
330
47
102
}
330
47
100
AcDbScale
 70
     0
300
1:40
140
1.0
141
40.0
290
     0
  0
SCALE
  5
52
102
{ACAD_REACTORS
330
47
102
}
330
47
100
AcDbScale
 70
     0
300
1:50
140
1.0
141
50.0
290
     0
  0
SCALE
  5
53
102
{ACAD_REACTORS
330
47
102
}
330
47
100
AcDbScale
 70
     0
300
1:100
140
1.0
141
100.0
290
     0
  0
SCALE
  5
54
102
{ACAD_REACTORS
330
47
102
}
330
47
100
AcDbScale
 70
     0
300
2:1
140
2.0
141
1.0
290
     0
  0
SCALE
  5
55
102
{ACAD_REACTORS
330
47
102
}
330
47
100
AcDbScale
 70
     0
300
4:1
140
4.0
141
1.0
290
     0
  0
SCALE
  5
56
102
{ACAD_REACTORS
330
47
102
}
330
47
100
AcDbScale
 70
     0
300
8:1
140
8.0
141
1.0
290
     0
  0
SCALE
  5
57
102
{ACAD_REACTORS
330
47
102
}
330
47
100
AcDbScale
 70
     0
300
10:1
140
10.0
141
1.0
290
     0
  0
SCALE
  5
58
102
{ACAD_REACTORS
330
47
102
}
330
47
100
AcDbScale
 70
     0
300
100:1
140
100.0
141
1.0
290
     0
  0
SCALE
  5
59
102
{ACAD_REACTORS
330
47
102
}
330
47
100
AcDbScale
 70
     0
300
1/128" = 1'-0"
140
0.0078125
141
12.0
290
     0
  0
SCALE
  5
5A
102
{ACAD_REACTORS
330
47
102
}
330
47
100
AcDbScale
 70
     0
300
1/64" = 1'-0"
140
0.015625
141
12.0
290
     0
  0
SCALE
  5
5B
102
{ACAD_REACTORS
330
47
102
}
330
47
100
AcDbScale
 70
     0
300
1/32" = 1'-0"
140
0.03125
141
12.0
290
     0
  0
SCALE
  5
5C
102
{ACAD_REACTORS
330
47
102
}
330
47
100
AcDbScale
 70
     0
300
1/16" = 1'-0"
140
0.0625
141
12.0
290
     0
  0
SCALE
  5
5D
102
{ACAD_REACTORS
330
47
102
}
330
47
100
AcDbScale
 70
     0
300
3/32" = 1'-0"
140
0.09375
141
12.0
290
     0
  0
SCALE
  5
5E
102
{ACAD_REACTORS
330
47
102
}
330
47
100
AcDbScale
 70
     0
300
1/8" = 1'-0"
140
0.125
141
12.0
290
     0
  0
SCALE
  5
5F
102
{ACAD_REACTORS
330
47
102
}
330
47
100
AcDbScale
 70
     0
300
3/16" = 1'-0"
140
0.1875
141
12.0
290
     0
  0
SCALE
  5
60
102
{ACAD_REACTORS
330
47
102
}
330
47
100
AcDbScale
 70
     0
300
1/4" = 1'-0"
140
0.25
141
12.0
290
     0
  0
SCALE
  5
61
102
{ACAD_REACTORS
330
47
102
}
330
47
100
AcDbScale
 70
     0
300
3/8" = 1'-0"
140
0.375
141
12.0
290
     0
  0
SCALE
  5
62
102
{ACAD_REACTORS
330
47
102
}
330
47
100
AcDbScale
 70
     0
300
1/2" = 1'-0"
140
0.5
141
12.0
290
     0
  0
SCALE
  5
63
102
{ACAD_REACTORS
330
47
102
}
330
47
100
AcDbScale
 70
     0
300
3/4" = 1'-0"
140
0.75
141
12.0
290
     0
  0
SCALE
  5
64
102
{ACAD_REACTORS
330
47
102
}
330
47
100
AcDbScale
 70
     0
300
1" = 1'-0"
140
1.0
141
12.0
290
     0
  0
SCALE
  5
65
102
{ACAD_REACTORS
330
47
102
}
330
47
100
AcDbScale
 70
     0
300
1-1/2" = 1'-0"
140
1.5
141
12.0
290
     0
  0
SCALE
  5
66
102
{ACAD_REACTORS
330
47
102
}
330
47
100
AcDbScale
 70
     0
300
3" = 1'-0"
140
3.0
141
12.0
290
     0
  0
SCALE
  5
67
102
{ACAD_REACTORS
330
47
102
}
330
47
100
AcDbScale
 70
     0
300
6" = 1'-0"
140
6.0
141
12.0
290
     0
  0
SCALE
  5
68
102
{ACAD_REACTORS
330
47
102
}
330
47
100
AcDbScale
 70
     0
300
1'-0" = 1'-0"
140
12.0
141
12.0
290
     0
  0
ENDSEC
  0
EOF
